Song name
# A B C D E F G H I J K L M N O P Q R S T U V W X Y Z

Drop Dead Gorgeous - Er tab

  [Intro 2x]

|------------------------------------------------|
|------------------------------------------------|
|------14---14-14--14-14-------14---14-14--14-14-|
|------x----x--x---x--x--------x----x--x---x--x--|
|--000-12---12-12--12-12---000-12---12-12--12-12-|
|--000---------------------000-------------------|
   ...                     ...


|--------------------------------------------------|
|--------------------------------------------------|
|------15---15-15--15-15-------17---17-17-17-17-17-|
|------x----x--x---x--x--------x----x--x--x--x--x--|
|--000-13---13-13--13-13---000-15---15-15-15-15-15-|
|--000---------------------000---------------------|
   ...                     ...


  [Guitar 1/left speaker]

|----------------------14^-|
|--------------------------|
|--------------------------|  
|--------------------------|
|-----0000--0000-----------|
|-----0000--0000-----------|
|     ....  ....


  [Guitar 2/right speaker]

|----------------------14^-|
|--------------------------|
|--------------------------|  
|--------------------------|
|-0000-----------0000------|
|-0000-----------0000------|
  ....           ....


  [Guitar 1&2]

|---------------------------------|
|---------------------------------|
|----8p0-7p0-10p0-8p0-7p0-7p0-7/8-| [2x]
|---------------------------------|
|-00------------------------------|
|-00------------------------------|
  ..

|----------------------------------------------------------------|
|----------------------------------------------------------------|
|-----8p0-7p0---8p0-7p0-10p0-8p0----7p0-5p0-----12p0-10p0-8p0----|
|----------------------------------------------------------------|
|--00---------00-----------------00---------00-------------------|
|--00---------00-----------------00---------00-------------------|
   ..         ..                 ..         ..




  [Guitar 2]

|---------------------------------|
|---------------------------------|
|---------------------------------|  
|---------------------------------|
|-0-0-0-0--0--000-0-0--0-0-0-0--0-|
|-0-0-0-0--0--000-0-0--0-0-0-0--0-|
  . . . .  .  ... . .  . . . .  .


  [Guitar 1]

|---------------------------------|
|---------------------------------|
|---------------------------------|
|---------------------------------|
|-0-0-0-0--0--000-0-0--0-0-0-0--0-|
|-0-0-0-0--0--000-0-0--0-0-0-0--0-|
  . . . .  .  ... . .  . . . .  .

|------------------------------------------------------------------------|
|-------------------------------------------------------------------12-12|
|-------------------------------------------------------------------15-15|  
|------------------------------------------------------------------------|
|-0-0-0-0--0--000-0-0--0-0-0-0--0---0-0-0-0--0--000-0-0--0-0-0-0--0------|
|-0-0-0-0--0--000-0-0--0-0-0-0--0---0-0-0-0--0--000-0-0--0-0-0-0--0------|
  . . . .  .  ... . .  . . . .  .   . . . .  .  ... . .  . . . .  .

  [2x]


  [Outro]

|--------------------------|
|--------------------------|
|----14----14------14--14--| [3x]
|----x-----x-------x---x---| 
|-00-12--0-12--00--12--12--|  
|-00-----0-----00----------|
  ..     .     ..

|-------------|
|-------------|
|----14----14-|
|----x-----x--|
|-00-12--0-12-|
|-00-----0----|
  ..     .    

|--------------------------|
|--------------------------|
|----14----14------14--14--| [4x]
|----x-----x-------x---x---| 
|-00-12--0-12--00--12--12--|  
|-00-----0-----00----------|
  ..     .     ..

[End Piano]
Tap to rate this tab
 
# A B C D E F G H I J K L M N O P Q R S T U V W X Y Z