Song name
# A B C D E F G H I J K L M N O P Q R S T U V W X Y Z

Drop Dead Gorgeous - Well I Never Knew You Were So Much Fun tab

Help us improve GuitareTab! Take a short survey!
----------------------------------------------------------------------------
 Drop Dead, Gorgeous - Well, I Never Knew You Were So Much Fun [EP Version]
----------------------------------------------------------------------------

Tabbed by: Tim Y. (bleedingx3)
email: hex_x3@yahoo.com
AIM: TimofBodomxx

Tuning : Drop C ( C G C F A D )

Legend :
p = pull off
h = hammer on
. = palm mute


"I'm in line for the murder, first come first server..."
|------------------------------------------------------------------|
|------------------------------------------------------------------|
|--------------------------------------------------5h0-3h0-2/3\2-0-|
|-----7p0-5p0-7p0------7p0-5p0-7p0-----7p0-5p0-7p0-----------------| [2x]
|------------------------------------------------------------------|
|-0-0--------------0-0-------------0-0-----------------------------|
  . .              . .             . .


"Is this what you want from me, to hear me scream?"
|---------------------------------------|
|---------------------------------------|
|---------------------------------------|
|-----10p0-8p0-10p0------10p0-8p0-10p0--|
|---------------------------------------|
|-0-0---------------0-0-----------------|------------
  . .               . .                              | [2x]
|-----------------------------------|----------------
|-----------------------------------|
|-------------------8h0-7h0-4/5\4-0-|
|-----10p0-8p0-10p0-----------------|
|-----------------------------------|
|-0-0-------------------------------|
  . .


"I'll die a tragedy ..."
|---------------------------------------|--------|
|-----------15-15---15-15-15------------|-15--15-|
|-----------18-18-0-18-18-18------------|-18--18-|
|---------------------------------------|--------| [8x]
|---------------------------------------|--------|
|-000---000------------------000---000--|--------|
  ...   ...                  ...   ...

|---------------------------------------------------|
|---------------------------------------------------|
|---------------------------------------------------|
|-0-------------------------------------------------| [Together]
|-0-------------------------------------------------|
|-0--------0-0-0-0-0-0-0-0-0-0-0-0-0-0-0-0-0-0-0-0--| [Guitar 1]
           . . . . . . . . . . . . . . . . . . . . 

"Don't you just love a good time, baby?"

|--------------------------|
|--------------------------|
|--------------------------|
|--------------------------| [2x] [Guitar 2]
|-555-888-777-101010-88-77-|
|-555-888-777-101010-88-77-|
  ... ... ...  . . . .. ..

|--------------------------|
|--------------------------|
|--------------------------|
|-333-777-555--888-777-555-| [Guitar 1]
|--------------------------|
|--------------------------|
|-----------------------------------------                          
|                                         | [6x]  They do match up
|-----------------------------------------
|--------------------------|
|--------------------------|
|--------------------------|
|--------------------------| [Guitar 2]
|-555-888-777-101010-88-77-|
|-555-888-777-101010-88-77-|
  ... ... ...  . . . .. ..


"Don't you just love a good time?[I do] I DO!"
|--------------------------------------|
|------------15--15--------------------|
|------------18--18--------------------|  [4x]
|--------------------------------------| 
|--------------------------------------|
|-000---000----------000--00--00000000-|
  ...   ...          ...  ..  ........
Related for Well I Never Knew You Were So Much Fun tab