Song name
# A B C D E F G H I J K L M N O P Q R S T U V W X Y Z

Drop Dead Gorgeous - Girl Are You On Your tab

Drop Dead, Gorgeous
Girl, Are You On Your...
In Vogue

The fist tab I saw was way off so I decided to go at it myself
I don't know if a few parts are entirly right but I just went by hearing
It should be at least 95% right
if theres anything you would like to know just message me at myspace
www.myspace.com/imnot_cliche
(no hate mail)

Tuning:CGCFAD
h=hammer on
/=slide up
\=slide down
~=let ring out
.=palm mute


Starts off with drums
Then Guitar fades in with
D|------|
A|------|
F|------|
C|--0~--|
G|--0~--|
C|--0~--|

D|-----------------------------------|
A|-----------------------------------|
F|--9-99-9-7-77-7-10-1010-10-7-77-7--|x2
C|--x-xx-x-x-xx-x--x--x-x--x-x-xx-x--|
G|--7-77-7-5-55-5--8--8-8--8-5-55-5--|
C|-----------------------------------|

D|---------------------|---------------------------------------------|
A|---------------------|---------------------------------------------|
F|--10-------10--------|--10-------10--------10--9-------9--------9--|x4
C|---x--------x--------|---x--------x-7h9h10-----x-------x-7h9h10----|
G|---8-00-00--8-00-00--|---8-00-00--8------------7-00-00-7-----------|
C|-----00-00----00-00--|------00-00----------------00-00-------------|
pm:    .. ..    .. ..         .. ..                .. ..

D|-----------------------------------|
A|-----------------------------------|
F|--7------7------7777/1010\99/1010--|x2
C|--x------x------xxxx/-x-x\xx/-x-x--|
G|--5------5------5555/-8-8\77/-8-8--|
C|----0000---0000--------------------|
pm:   ....   ....

D|------------|
A|------------|
F|----7/1010--|x16
C|--0-x/-x-x--|
G|--0-5/-8-8--|
C|--0---------|

D|--------------------------|
A|--------------------------|
F|--17--15--17--15--19--21--|
C|---x---x---x---x---x---x--|
G|--15--13--15--13--17--19--|
C|--------------------------|

D|----------------|
A|--6----6---6----|
F|----10---9---9--|x8
C|----------------|
G|----------------|
C|----------------|

D|----------------------|
A|----------------------|
F|----------------------|x4
C|----------------------|
G|--0000~------0-0000~--|
C|--0000~------0-0000~--|
pm: ....       . ....

D|-----------------------------------------------|
A|-----------------------------------------------|
F|--7-------77/9-------99/10-------1010/1212/14--|x6
C|--x-------xx/x-------xx/-x--------x-x/-x-x/-x--|
G|--5-------55/7-------77/-8--------8-8/1010/12--|
C|----00-00------00-00-------00-00---------------|
pm:   .. ..      .. ..       .. ..

D|------|
A|------|
F|--7~--|
C|--x~--|
G|--5~--|
C|------|

D|---------------------------------------------|
A|---------------------------------------------|
F|--10-------10--------10--9-------9--------9--|x4
C|---x--------x-7h9h10-----x-------x-7h9h10----|
G|---8-00-00--8------------7-00-00-7-----------|
C|-----00-00-----------------00-00-------------|
pm:    .. ..                .. ..

D|------|
A|------|
F|------|
C|--0~--|
G|--0~--|
C|--0~--|

end of song

Lyrics:

Curtains
Steady, this won't hurt a bit
I promise this won't hurt a bit
Close your eyes for the fist time
Pray to your god and gorgive me
forgive me father for i have sinned
the streets will run red
no one knows what goes on behind closed eyes
no one knows what goes on behind those eyes
Highlight this valley
The fire will burn us both
Tap to rate this tab
 
# A B C D E F G H I J K L M N O P Q R S T U V W X Y Z