Song name
# A B C D E F G H I J K L M N O P Q R S T U V W X Y Z

Drop Dead Gorgeous - Red Or White Wine tab

Drop dead Gorgeous
Red or White Wine?
Drop C (like all ddg songs)

songs if fairly simple, figured it out in just a few minutes. and its just fun to play 
go crazy to.

intro
D|------------|
A|------------|
F|------------|
C|------------|
G|-0--0--0--0-|
C|-0--0--0--0-|X4 (played very slowly

verse X2
(you've been worn...)
D|-----------------------------------------------------|
A|--------------11-11-11-11--------------11-11-11-11---|
F|--------------14-14-14-14--------------14-14-14-14---|
C|-----------------------------------------------------|
G|-0--0-0-0-0-0-------------0--0-0-0-0-0---------------|
C|-0--0-0-0-0-0-------------0--0-0-0-0-0---------------|

D|-----------------------------------------------------|
A|--------------11-11-11-11--------------12-12-12-12---|
F|--------------14-14-14-14--------------15-15-15-15---|
C|-----------------------------------------------------|
G|-0--0-0-0-0-0-------------0--0-0-0-0-0---------------|
C|-0--0-0-0-0-0-------------0--0-0-0-0-0---------------|

verse pt 2 X2
(did it hurt...)
D|-----------------------------------------------------|
A|-------------------12-12-12--------------------------|
F|-------------------15-15-15--------------------------|
C|-----------------------------------------------------|
G|-0----0----0----0------------------------------------|
C|-0----0----0----0------------------------------------|

chorus X2
(from here on, figure out how many times you strum the chord yourself)
(its not time to go...)
D|--------------------------------------------|
A|--------------------------------------------|
F|-12-12-12/14---10-10-10---9-9-9---10-10-10--|
C|--------------------------------------------|
G|-10-10-10/12----8--8--8---7-7-7----8--8--8--|
C|---0--0----------0--0--0---0-0-0----0--0--0-|

Post-Chorus X4
(turn turn the wheels of horror...)
D|----------------------------------|
A|----------------------------------|
F|----------------------------------|
C|----------------------------------|
G|----------------------------------|
C|-6767--3--6767--3-----------------|

BreakDown X2
(i watched you fall from the balcony...)
D|-----------------------------------------------|
A|-----------------------------------------------|
F|-----------------------------------------------|
C|-----------------------------------------------|
G|-0--0--------0-0-0-----0--0--------0-0-0-------|
C|-0--0-18^----0-0-0-----0--0-3^-----0-0-0-------|

(An artist you'll die.)
D|---------------------------------------|
A|---------------------------------------|
F|---------------------------------------|
C|---------------------------------------|
G|-0-----765654543432--------------------|
C|-0-3^----------------------------------|

pre chorus
UNKWOWN, ima working on it

Chorus
(its not time to go...)
Repeated

(you cant play with matches)
same as chorus

post chorus/outro
(turn turn the wheels of horror...)
same as post chorus

thats it, great album better than the last one
im working on "i want to master life and death" almost done, just need to work on that 
breakdown at the end

OH and ^=bend
Tap to rate this tab
# A B C D E F G H I J K L M N O P Q R S T U V W X Y Z