Song name
# A B C D E F G H I J K L M N O P Q R S T U V W X Y Z

Drop Dead Gorgeous - Drawing The Devil tab

----------------------------------------------------------------------------
			     Drawing The Devil - Drop Dead, Gorgeous
----------------------------------------------------------------------------
Album: Worse Than A Fairy Tale (2007)

Tabbed by: Nick M.
Email:nicmat42@gmail.com

Tuning: Drop C (CGCFAD)

It was hard to make out the lead guitar in this song, I did my best to figure out
what I could. Feel free to make any corrections or suggestions.

Intro/Chorus

D|--------------------------------------------------|   
A|--------------------------------------------------|  
F|-10-10101010-10-10101010-9--9-9-9-9-10-10101010---|  
C|--0--0-0-0-0--0-0-0-0-0--0--0-0-0-0--0--0-0-0-0---|   
G|--0--0-0-0-0--0-0-0-0-0--0--0-0-0-0--0--0-0-0-0---| 
C|--0--0-0-0-0--0-0-0-0-0--0--0-0-0-0--0--0-0-0-0---|  

D|--------------------------------------------------|
A|--------------------------------------------------|
F|-10-10101010-10-10101010--9--9-9-9-9--9--9-9-9-9--|
C|--8--8-8-8-8--8--8-8-8-8--7--7-7-7-7--7--7-7-7-7--|
G|--8--8-8-8-8--8--8-8-8-8--7--7-7-7-7--7--7-7-7-7--|
C|--8--8-8-8-8--8--8-8-8-8--7--7-7-7-7--7--7-7-7-7--|

D|--------------------------------------------------|
A|--------------------------------------------------|
F|--------------------------------------------------|
C|--3--3-3-3-3--3--3-3-3-3---0---0---0---0---0---0--|
G|--3--3-3-3-3--3--3-3-3-3---0---0---0---0---0---0--|
C|--3--3-3-3-3--3--3-3-3-3--1p0-1p0-1p0-1p0-1p0-1p0-|

D|--------------------------------------------------------------|
A|--------------------------------------------------------------|
F|--------------10-10101010-10-10101010-9--9-9-9-9-10-10101010--|
C|--0--0-0-0-0--------------------------------------------------| x2
G|--0--0-0-0-0--8--8-8-8-8---8--8-8-8-8-7--7-7-7-7--8--8-8-8-8--|
C|--0--0-0-0-0--------------------------------------------------|

Interlude #1

D|---------------------------------------|                   |-------|
A|--10-10-10-10-10-10-11-11-11-11-11-11--|                   |--10~--|
F|--10-10-10-10-10-10-10-10-10-10-10-10--| x3 then end with  |--10~--|bend!
C|---------------------------------------|                   |-------|
G|---------------------------------------|                   |-------|
C|---------------------------------------|                   |-------|

Verse

D|--------------------------------------------|
A|--------------------------------------------|
F|--------------------------------------------|
C|--------------------------------------------|
G|--0--0-0--------------0-0--0-0--------------|
C|--0--0-0-7p0-5p0-3p0--0-0--0-0-7h8p0-5p0----|

D|-------------------------------------------------------------------------|
A|-------------------------------------------------------------------------|
F|-15-15-15-15-15-15-14-14-14-14-14-14-17-17-17-17-17-17-19-19-19-19-19-19-|
C|-------------------------------------------------------------------------| 
G|-13-13-13-13-13-13-12-12-12-12-12-12-15-15-15-15-15-15-17-17-17-17-17-17-|
C|-------------------------------------------------------------------------|

D|------------------------------------------|
A|------------------------------------------|
F|------------------------------------------|
C|------------------------------------------| 
G|--0--0-0--------------0-0--0-0------------|
C|--0--0-0-7p0-5p0-3p0--0-0--0-0-7h8p0-5p0--|

D|--------------------------------------------------------------------------|
A|--------------------------------------------------------------------------|
F|-15-15-15-15-15-15-14-14-14-14-14-14-12-12-12-12-12-12-10-10-10-10-10-10--|
C|--------------------------------------------------------------------------| 
G|-13-13-13-13-13-13-12-12-12-12-12-12-10-10-10-10-10-10-8--8--8--8--8--8---|
C|--------------------------------------------------------------------------|

D|-----------------------------|
A|-----------------------------|
F|-----------------------------|
C|--0----0--0----0--0----0--0--| 
G|--0----0--0----0--0----0--0--|
C|--0----0--0----0--0----0--0--|

D|-------------------------------------------------------------------------|
A|-------------------------------------------------------------------------|
F|-15-15-15-15-15-15-14-14-14-14-14-14-17-17-17-17-17-17-19-19-19-19-19-19-|
C|-------------------------------------------------------------------------| 
G|-13-13-13-13-13-13-12-12-12-12-12-12-15-15-15-15-15-15-17-17-17-17-17-17-|
C|-------------------------------------------------------------------------|

D|----------------------------|
A|----------------------------|
F|----------------------------|
C|--0-0--0-0-----0-0--0-0-----|
G|--0-0--0-0-----0-0--0-0-----|
C|--0-0--0-0-/8--0-0--0-0-/7--|

D|-------------------------------------------------------------------------|
A|-------------------------------------------------------------------------|
F|-15-15-15-15-15-15-14-14-14-14-14-14-17-17-17-17-17-17-19-19-19-19-19-19-|
C|-------------------------------------------------------------------------| 
G|-13-13-13-13-13-13-12-12-12-12-12-12-15-15-15-15-15-15-17-17-17-17-17-17-|
C|-------------------------------------------------------------------------|

Interlude #2

D|-----------------------------------------------------|
A|-----------------------------------------------------|
F|------12-12----10-10-----9-9-------------------------|
C|------10-10-----8-8------7-7-------------------------| x1
G|--0-0-------0-0------0-0-----------------------------|
C|--0-0-------0-0------0-0-----////////////////--------|

Intro/Chorus x2

Verse #2/Breakdown?

D|---------------------------|       |-------------------------------------|
A|---------------------------|       |-------------------------------------|
F|---------------------------|       |---------------------------------7~--|
C|---0----0-0-0-0-0-0-0-...--| x4    |----0h7h8p7---0h8h10p8---0h5h7p5-----| x4
G|---0----0-0-0-0-0-0-0-...--|       |--0---------0----------0-------------|
C|---0----0-0-0-0-0-0-0-...--|       |--0---------0----------0-------------|

D|-----------------------------------------------------------------------|
A|--------------------------Bass Line--------------------------------------|
F|-----------------------------------------------------------------------|
C|-----------------------------------------------------------------------| x6
G|------1-1-1-1-1-----1-1-0--------3-3-3-3-3-----1-1-0-------------------|
C|--0-0-----------0-0----------0-0-----------0-0-------------------------|

Outro

D|--------------------------------------------------|
A|--------------------------------------------------|
F|--10-10101010-10-10101010-9--9-9-9-9--9--9-9-9-9--|
C|--8--8-8-8-8--8--8-8-8-8--7--7-7-7-7--7--7-7-7-7--| 
G|--8--8-8-8-8--8--8-8-8-8--7--7-7-7-7--7--7-7-7-7--|
C|--8--8-8-8-8--8--8-8-8-8--7--7-7-7-7--7--7-7-7-7--|

D|-----------------------------------------------------------|
A|-----------------------------------------------------------|
F|-12--12-12-12-12--12--12-12-12-12-10-10101010--9--9-9-9-9--|
C|-10--10-10-10-10--10--10-10-10-10--8--8-8-8-8--7--7-7-7-7--| till the end
G|-10--10-10-10-10--10--10-10-10-10--8--8-8-8-8--7--7-7-7-7--|
C|-10--10-10-10-10--10--10-10-10-10--8--8-8-8-8--7--7-7-7-7--|


Enjoy.


| /  slide up
| \  slide down
| h  hammer-on
| p  pull-off
| ~  vibrato
| +  harmonic
| x  Mute note
=============================================================
Tap to rate this tab
# A B C D E F G H I J K L M N O P Q R S T U V W X Y Z