Song name
# A B C D E F G H I J K L M N O P Q R S T U V W X Y Z

Drop Dead Gorgeous - I Want To Master Life And Death tab

I Want To Master Life & Death
Drop Dead, Gorgeous
Worse Than A Fairy Tale
Drop C- CGCFAD


***UPDATE***
Jan. 31,2008

-I'm re-doing Guitar 1 on the Chorus from a correction made by "The_Beginner"
and the "light strumming" part should be one step down on the chords.


Gtr 1- light distortion                               x3
D||---------------------------------------------------||
A||o-------------------------------------------------o||
F||---------------------------------------------------||
C||---------------------------------------------------||
G||o-5-----5-----5-----5-----3-----3-----3-----3-----o||
C||--5-5-5-5-5-5-5-5-5-5-5-5-3-3-3-3-3-3-3-3-3-3-3-3--||
     pm- - - - - - - - - - - - - - - - - - - - - - -
(on third time, Gtr 2 comes in)
“I would do for you, what you did to me, even kill..
but to you I’m just a mirror, well sometimes mirrors shatter”

D|---------------------------------------------|
A|---------------------------------------------|
F|---------------------------------------------|
C|---------------------------------------------|
G|--3-----3-----3-----3-----3-----3-----3------|
C|--3-3-3-3-3-3-3-3-3-3-3-3-3-3-3-3-3-3-3-3-3--|
    - - - - - - - - - - - - - - - - - - - - -
“the shrapnel becomes deadly, it surrounds you with no escape”
D|----------------------------------------|
A|----------------------------------------|
F|----------------------------------------|
C|--5-5-5-5-5-5-5-5-5-5--3-3-3-3-3-3-3-3--|
G|--5-5-5-5-5-5-5-5-5-5--3-3-3-3-3-3-3-3--|
C|--5-5-5-5-5-5-5-5-5-5--3-3-3-3-3-3-3-3--|
    - - - - - - - - - -  (strum lightly)
“and you can’t save her, you can’t save her”


***THE CORRECTION***
--------------------------------------|
|------------------------------------||
|------------------------------------||
|--15-15-15-15-14-14-14-17-17-17-17--||
|------------------------------------||
|--13-13-13-13-12-12-12-15-15-15-15--||
|------------------------------------||
                                      |______________________
|---------------------------------------------------------| |
|---------------------------------------------------------| |
|--17-17-17-15-15-15-19-19-19-19-19-17-17-15-17-17-17-17--| |
|---------------------------------------------------------| |
|--15-15-15-13-13-13-17-17-17-17-17-15-15-13-15-15-15-15--| |
|---------------------------------------------------------| |
                        ____________________________________|
|---------------------| |
|---------------------| |
|--15-15-15-14-14-14--| |
|---------------------| |
|--13-13-13-12-12-12--| |
|---------------------| |
________________________|


Chorus
Gtr 1
D|-----------------------------------------------------|
A|-----------------------------------------------------|
F|-/15151515151515151515-14141414-17171717171717171717-|
C|-----------------------------------------------------|
G|-/13131313131313131313-12121212-15151515151515151515-|
C|-----------------------------------------------------|
Gtr 2
D|-------------------------------------------------|
A|-------------------------------------------------|
F|-/15151515151515151515-17b====================r--|
C|-------------------------------------------------|
G|-/13131313131313131313-151515151515151515151515--|
C|-------------------------------------------------|
“like a ghost, you slept in my bed and I fell
while you tore through my neck”

Gtr 1
D|------------------------------------------------------|
A|------------------------------------------------------|
F|-151515/17/1919191919-1717-15-17171717-151515-141414--|
C|------------------------------------------------------|
G|-131313/15/1717171717-1515-13-15151515-131313-121212--|
C|------------------------------------------------------|
Gtr 2
D|------------------------------------------------------|
A|------------------------------------------------------|
F|-21212121212121212121-1919191919-1717-151515-14141414-|
C|------------------------------------------------------|
G|-19191919191919191919-1717171717-1515-131313-12121212-|
C|------------------------------------------------------|
“when I awoke, you were already dead
those eyes, I’ll never forget”

Verse                                                 x3
D||---------------------------------------------------||
A||o-------------------------------------------------o||
F||---------------------------------------------------||
C||---------------------------------------------------||
G||o-5-----5-----5-----5-----3-----3-----3-----3-----o||
C||--5-5-5-5-5-5-5-5-5-5-5-5-3-3-3-3-3-3-3-3-3-3-3-3--||
     pm- - - - - - - - - - - - - - - - - - - - - - -
“make your move, take your time, every pawn threatens your life”
“go raise hell, come with short, no mercy is granted here”
“best come clean, kill your stride”
“keep your head, cleanse your life”

D|----------------------------------------|
A|----------------------------------------|
F|----------------------------------------|
C|--5-5-5-5-5-5-5-5-5-5--3-3-3-3-3-3-3-3--|
G|--5-5-5-5-5-5-5-5-5-5--3-3-3-3-3-3-3-3--|
C|--5-5-5-5-5-5-5-5-5-5--3-3-3-3-3-3-3-3--|
    - - - - - - - - - -  (strum lightly)
“cause you can’t save her, you can’t save her”

Chorus
Gtr 1
D||-----------------------------------------------------|
A||o----------------------------------------------------|
F||--15151515151515151515-14141414-17171717171717171717-|
C||-----------------------------------------------------|
G||o-13131313131313131313-12121212-15151515151515151515-|
C||-----------------------------------------------------|
Gtr 2
D||-------------------------------------------------|
A||o------------------------------------------------|
F||--15151515151515151515-17b====================r--|
C||-------------------------------------------------|
G||o-13131313131313131313-151515151515151515151515--|
C||-------------------------------------------------|
“like a ghost, you slept in my bed and I fell
while you tore through my neck”

Gtr 1
D|-------------------------------------------------------||
A|------------------------------------------------------o||
F|-151515/17/1919191919-1717-15-17171717-151515-141414---||
C|-------------------------------------------------------||
G|-131313/15/1717171717-1515-13-15151515-131313-121212--o||
C|-------------------------------------------------------||
Gtr 2
D|-------------------------------------------------------||
A|------------------------------------------------------o||
F|-21212121212121212121-1919191919-1717-151515-14141414--||
C|-------------------------------------------------------||
G|-19191919191919191919-1717171717-1515-131313-12121212-o||
C|-------------------------------------------------------||
“when I awoke, you were already dead
those eyes, I’ll never forget”

Gtr 1,2
D|---------------------------------------------------|
A|---------------------------------------------------|
F|-151515151515151515151515-141414141414141414141414-|
C|---------------------------------------------------|
G|-131313131313131313131313-121212121212121212121212-|
C|---------------------------------------------------|
“like a ghost.. like a ghost.. like a ghost”
D|--------------------------------|
A|--------------------------------|
F|-151515151515151515151515151515-|
C|--------------------------------|
G|-131313131313131313131313131313-|
C|--------------------------------|
“like a ghost..”


***I don’t know the breakdown/interlude***


Gtr 1
D||-----------------------------------------------------|
A||o----------------------------------------------------|
F||--15151515151515151515-14141414-17171717171717171717-|
C||-----------------------------------------------------|
G||o-13131313131313131313-12121212-15151515151515151515-|
C||-----------------------------------------------------|
Gtr 2
D||-------------------------------------------------|
A||o------------------------------------------------|
F||--15151515151515151515-17b====================r--|
C||-------------------------------------------------|
G||o-13131313131313131313-151515151515151515151515--|
C||-------------------------------------------------|
"Oooooohhhhh oohhh  Ohhhhhhhhhhh"

Gtr 1
D|-------------------------------------------------------||
A|------------------------------------------------------o||
F|-151515/17/1919191919-1717-15-17171717-151515-141414---||
C|-------------------------------------------------------||
G|-131313/15/1717171717-1515-13-15151515-131313-121212--o||
C|-------------------------------------------------------||
Gtr 2
D|-------------------------------------------------------||
A|------------------------------------------------------o||
F|-21212121212121212121-1919191919-1717-151515-14141414--||
C|-------------------------------------------------------||
G|-19191919191919191919-1717171717-1515-131313-12121212-o||
C|-------------------------------------------------------||
"I swear, I swear.. you won't find her body."

D||-----------------------------------------||
A||o---------------------------------------o||
F||-----------------------------------------||
C||--0--0--0--0---3-2-1---0--0--0--0--0--0--||
G||o-0--0--0--0-----------0--0--0--0--0--0-o||
C||--0--0--0--0---3-2-1---0--0--0--0--0--0--||
“death is a upon, all of us”
“it comes in the shape on an angel”
Tap to rate this tab
# A B C D E F G H I J K L M N O P Q R S T U V W X Y Z