Song name
# A B C D E F G H I J K L M N O P Q R S T U V W X Y Z

Drop Dead - Luxuria drum

Percussion



     W                   W                   W                 
C||-------------------|-------------------|-------------------|
C||-------------------|-------------------|-------------------|
C||-------------------|-------------------|-------------------|
C||-------------------|-------------------|-------------------|
C||-------------------|-------------------|-------------------|
C||-------------------|-------------------|-------------------|


  W                   W                   W                   W                 
-------------------|-------------------|-------------------|-------------------|
-------------------|-------------------|-------------------|-------------------|
-------------------|-------------------|-------------------|-------------------|
-------------------|-------------------|-------------------|-------------------|
-------------------|-------------------|-------------------|-------------------|
-------------------|-------------------|-------------------|-------------------|


  W                   W                   W                   W                 
-------------------|-------------------|-------------------|-------------------|
-------------------|-------------------|-------------------|-------------------|
-------------------|-------------------|-------------------|-------------------|
-------------------|-------------------|-------------------|-------------------|
-------------------|-------------------|-------------------|-------------------|
-------------------|-------------------|-------------------|-------------------|


  W                   W                   W                   W                 
-------------------|-------------------|-------------------|-------------------|
-------------------|-------------------|-------------------|-------------------|
-------------------|-------------------|-------------------|-------------------|
-------------------|-------------------|-------------------|-------------------|
-------------------|-------------------|-------------------|-------------------|
-------------------|-------------------|-------------------|-------------------|


  W                    E   E   E   E   E   E   E   E   
-------------------|--49------46------46------46------|
-------------------|--57------------------------------|
-------------------|------------------40--------------|
-------------------|----------------------------------|
-------------------|----------------------------------|
-------------------|--35--35------35--35--35------35--|


   E   E   E   E   E   E   E   E      E   E   E   E   E   E   E   E   
--46------46------46------46------|--46------46------46------46------|
----------------------------------|----------------------------------|
------------------40--------------|------------------40--------------|
----------------------------------|----------------------------------|
----------------------------------|----------------------------------|
--35--35------35--35--35------35--|--35--35------35--35--35------35--|


   E   E   E   E   E   E   E   E      E   E   E   E   E   E   E   E   
--46------46------46------46------|--49------46------46------46------|
----------------------------------|--46------------------------------|
------------------40----------40--|------------------40--------------|
----------------------------------|----------------------------------|
----------------------------------|----------------------------------|
--35--35------35--35--35------35--|--35--35------35--35--35------35--|


   E   E   E   E   E   E   E   E      E   E   E   E   E   E   E   E   
--46------46------46------46------|--46------46------46------46------|
----------------------------------|----------------------------------|
------------------40--------------|------------------40--------------|
----------------------------------|----------------------------------|
----------------------------------|----------------------------------|
--35--35------35--35--35------35--|--35--35------35--35--35------35--|


   E   E   E   E   E   E   E   E   
--46------46------46------46------|
----------------------------------|
------------------40--40------40--|
----------------------------------|
----------------------------------|
--35--35------35--35--35------35--|


   S  S  S  S  S  S  S  S  S  S  S  S  S  S  S  S  
--57----------51----------51----------51----------|
--------------------------------------------------|
--------------40----------------------40----------|
--------------------------------------------------|
--------------------------------------------------|
--35-35-35-35-35-35-35-35-35-35-35-35-35-35-35-35-|


   S  S  S  S  S  S  S  S  S  S  S  S  S  S  S  S  
--51----------51----------51----------51----------|
--------------------------------------------------|
--------------40----------------------40----40----|
--------------------------------------------------|
--------------------------------------------------|
--35-35-35-35-35-35-35-35-35-35-35-35-35-35-35-35-|


   S  S  S  S  S  S  S  S  S  S  S  S  S  S  S  S  
--51----------51----------51----------51----------|
--------------------------------------------------|
--------------40----------------------40----------|
--------------------------------------------------|
--------------------------------------------------|
--35-35-35-35-35-35-35-35-35-35-35-35-35-35-35-35-|


   S  S  S  S  S  S  S  S  S  S  S  S  S  S  S  S  
--51----------51----------51----------51----------|
--------------------------------------------------|
--------------40----------------------40----40-40-|
--------------------------------------------------|
--------------------------------------------------|
--35-35-35-35-35-35-35-35-35-35-35-35-35-35-35-35-|


   S  S  S  S  S  S  S  S  S  S  S  S  S  S  S  S  
--57----------51----------51----------51----------|
--------------------------------------------------|
--------------40----------------------40----------|
--------------------------------------------------|
--------------------------------------------------|
--35-35-35-35-35-35-35-35-35-35-35-35-35-35-35-35-|


   S  S  S  S  S  S  S  S  S  S  S  S  S  S  S  S  
--51----------51----------51----------51----------|
--------------------------------------------------|
--------------40----------------------40----40----|
--------------------------------------------------|
--------------------------------------------------|
--35-35-35-35-35-35-35-35-35-35-35-35-35-35-35-35-|


   S  S  S  S  S  S  S  S  S  S  S  S  S  S  S  S  
--51----------51----------51----------51----------|
--------------------------------------------------|
--------------40----------------------40----------|
--------------------------------------------------|
--------------------------------------------------|
--35-35-35-35-35-35-35-35-35-35-35-35-35-35-35-35-|


   S  S  S  S  S  S  S  S  S  S  S  S  S  S  S  S  
--51----------51----------51----------51----------|
--------------------------------------------------|
--------------40----------------------40----40-40-|
--------------------------------------------------|
--------------------------------------------------|
--35-35-35-35-35-35-35-35-35-35-35-35-35-35-35-35-|


   E   T  T  S  T  T  S  E   E   T  T  S  T  T  S  T  T  S  
--49--57-------57-------57--57--57-------57-------57-------|
--57-------------------------------------------------------|
---------------40------------------------40----------------|
-----------------------------------------------------------|
-----------------------------------------------------------|
--35--35-35-35-35-35-35-35--35--35-35-35-35-35-35-35-35-35-|


   E   E   S  S  S  S  S  S  E   S  S  S  S  
--57--57--57----57----57----57--57----57----|
--------------------------------------------|
----------40--------------------40-------40-|
--------------------------------------------|
--------------------------------------------|
--35--35--35-35-35-35----35-35--35-35-35----|


   E   T  T  S  T  T  S  E   E   T  T  S  T  T  S  T  T  S  
--49--57-------57-------57--57--57-------57-------57-------|
--57-------------------------------------------------------|
---------------40------------------------40----------------|
-----------------------------------------------------------|
-----------------------------------------------------------|
--35--35-35-35-35-35-35-35--35--35-35-35-35-35-35-35-35-35-|


   E   E   S  S  S  S  S  S  E   S  S  S  T  T  
--57--57--57----57----57----57--57----57-------|
-----------------------------------------------|
----------40--------------------40-------40-40-|
-----------------------------------------------|
-----------------------------------------------|
--35--35--35-35-35-35----35-35--35-35-35-------|


   E   T  T  S  T  T  S  E   E   T  T  S  T  T  S  T  T  S  
--49--57-------57-------57--57--57-------57-------57-------|
--57-------------------------------------------------------|
---------------40------------------------40----------------|
-----------------------------------------------------------|
-----------------------------------------------------------|
--35--35-35-35-35-35-35-35--35--35-35-35-35-35-35-35-35-35-|


   E   E   S  S  S  S  S  S  E   S  S  S  S  
--57--57--57----57----57----57--57----57----|
--------------------------------------------|
----------40--------------------40-------40-|
--------------------------------------------|
--------------------------------------------|
--35--35--35-35-35-35----35-35--35-35-35----|


   E   T  T  S  T  T  S  E   E   T  T  S  T  T  S  T  T  S  
--49--57-------57-------57--57--57-------57-------57-------|
--57-------------------------------------------------------|
---------------40------------------------40----------------|
-----------------------------------------------------------|
-----------------------------------------------------------|
--35--35-35-35-35-35-35-35--35--35-35-35-35-35-35-35-35-35-|


   E   E   S  S  S  S  S  S  E   S  S  S  T  T     Q     Q     Q     E   E   
--57--57--57----57----57----57--57----57-------|--49----46----46----46------|
-----------------------------------------------|--57------------------------|
----------40--------------------40-40----40-40-|------------------------40--|
-----------------------------------------------|----------------------------|
-----------------------------------------------|----------------------------|
--35--35--35-35-35-35----35-35--35-35-35-------|--35------------------------|


   T  T  T  T  S  S  S  S  S  S  S  S  S  S  S  S  S  S  
--49----------46----46----46----46----46----46----46----|
--57----------------------------------------------------|
--------------40----------40----------40----------40----|
--------------------------------------------------------|
--------------------------------------------------------|
--35-35-35-35-35-35-35-35-35-35-35-35-35-35-35-35-35-35-|


   S  S  S  S  S  S  S  S  S  S  S  S  S  S  S  S  
--46----46----46----46----46----46----46----46----|
--------------------------------------------------|
--------40----------40----------40----------40----|
--------------------------------------------------|
--------------------------------------------------|
--35-35-35-35-35-35-35-35-35-35-35-35-35-35-35-35-|


   S  S  S  S  S  S  S  S  S  S  S  S  S  S  S  S  
--46----46----46----46----46----46----46----46----|
--------------------------------------------------|
--------40----------40----------40----------40----|
--------------------------------------------------|
--------------------------------------------------|
--35-35-35-35-35-35-35-35-35-35-35-35-35-35-35-35-|


   S  S  S  S  S  S  S  S  S  S  S  S  S  S  S  S  
--46----46----46----46----46----46----46----46----|
--------------------------------------------------|
--------40----------40----------40----------40-40-|
--------------------------------------------------|
--------------------------------------------------|
--35-35-35-35-35-35-35-35-35-35-35-35-35-35-35-35-|


   T  T  T  T  S  S  S  S  S  S  S  S  S  S  S  S  S  S  
--49----------46----46----46----46----46----46----46----|
--46----------------------------------------------------|
--------------40----------40----------40----------40----|
--------------------------------------------------------|
--------------------------------------------------------|
--35-35-35-35-35-35-35-35-35-35-35-35-35-35-35-35-35-35-|


   S  S  S  S  S  S  S  S  S  S  S  S  S  S  S  S  
--46----46----46----46----46----46----46----46----|
--------------------------------------------------|
--------40----------40----------40----------40----|
--------------------------------------------------|
--------------------------------------------------|
--35-35-35-35-35-35-35-35-35-35-35-35-35-35-35-35-|


   S  S  S  S  S  S  S  S  S  S  S  S  S  S  S  S  
--46----46----46----46----46----46----46----46----|
--------------------------------------------------|
--------40----------40----------40----------40----|
--------------------------------------------------|
--------------------------------------------------|
--35-35-35-35-35-35-35-35-35-35-35-35-35-35-35-35-|


   S  S  S  S  S  S  S  S  S  S  S  S  S  S  S  S  
--46----46----46----46----46----46----46----46----|
--------------------------------------------------|
--------40----------40----------40----------40-40-|
--------------------------------------------------|
--------------------------------------------------|
--35-35-35-35-35-35-35-35-35-35-35-35-35-35-35-35-|


   S  S  S  S  S  S  E   S  S  S  S  S  S  S  S  
--49----49----49----49--49----49----49----49----|
--57--------------------------------------------|
--------------40--------------------40----------|
------------------------------------------------|
------------------------------------------------|
--35-35-35-35-35-35-35--35-35-35-35-35-35-35-35-|


   S  S  S  S  S  S  E   S  S  S  S  S  S  S  S  
--49----49----49----49--49----49----------------|
------------------------------------------------|
--------------40-----------------40-------------|
------------------------------------------------|
------------------------------------47-45-43-45-|
--35-35-35-35-35-35-35--35-35-35-35-35-35-35-35-|


   S  S  S  S  S  S  E   S  S  S  S  S  S  S  S  
--49----49----49----49--49----49----49----49----|
------------------------------------------------|
--------------40--------------------40----------|
------------------------------------------------|
------------------------------------------------|
--35-35-35-35-35-35-35--35-35-35-35-35-35-35-35-|


   S  S  S  S  S  S  S  S  S  S  S  S  E   S  S  
--49----49----49----49----49----49----49--------|
------------------------------------------------|
--------------40----------------------40--40-40-|
------------------------------------------------|
------------------------------------------------|
--35-35-35-35-35-35-35-35-35-35-35-35-35--35-35-|


   S  S  S  S  S  S  E   S  S  S  S  S  S  S  S  
--49----49----49----49--49----49----49----49----|
--57--------------------------------------------|
--------------40--------------------40----------|
------------------------------------------------|
------------------------------------------------|
--35-35-35-35-35-35-35--35-35-35-35-35-35-35-35-|


   S  S  S  S  S  S  E   S  S  S  S  S  S  S  S  
--49----49----49----49--49----49----------------|
------------------------------------------------|
--------------40-----------------40-------------|
------------------------------------------------|
------------------------------------47-45-43-45-|
--35-35-35-35-35-35-35--35-35-35-35-35-35-35-35-|


   S  S  S  S  S  S  E   S  S  S  S  S  S  S  S  
--49----49----49----49--49----49----49----49----|
------------------------------------------------|
--------------40--------------------40----------|
------------------------------------------------|
------------------------------------------------|
--35-35-35-35-35-35-35--35-35-35-35-35-35-35-35-|


   S  S  S  S  S  S  S  S  S  S  S  S  E   S  S  
--49----49----49----49----49----49----49--------|
------------------------------------------------|
--------------40----------------------40--40-40-|
------------------------------------------------|
------------------------------------------------|
--35-35-35-35-35-35-35-35-35-35-35-35-35--35-35-|


   E   T  T  S  T  T  S  E   E   T  T  S  T  T  S  T  T  S  
--49--57-------57-------57--57--57-------57-------57-------|
--57-------------------------------------------------------|
---------------40------------------------40----------------|
-----------------------------------------------------------|
-----------------------------------------------------------|
--35--35-35-35-35-35-35-35--35--35-35-35-35-35-35-35-35-35-|


   E   E   S  S  S  S  S  S  E   S  S  S  S  
--57--57--57----57----57----57--57----57----|
--------------------------------------------|
----------40--------------------40-------40-|
--------------------------------------------|
--------------------------------------------|
--35--35--35-35-35-35----35-35--35-35-35----|


   E   T  T  S  T  T  S  E   E   T  T  S  T  T  S  T  T  S  
--49--57-------57-------57--57--57-------57-------57-------|
--57-------------------------------------------------------|
---------------40------------------------40----------------|
-----------------------------------------------------------|
-----------------------------------------------------------|
--35--35-35-35-35-35-35-35--35--35-35-35-35-35-35-35-35-35-|


   E   E   S  S  S  S  S  S  E   S  S  S  T  T  
--57--57--57----57----57----57--57----57-------|
-----------------------------------------------|
----------40--------------------40-------40-40-|
-----------------------------------------------|
-----------------------------------------------|
--35--35--35-35-35-35----35-35--35-35-35-------|


   E   T  T  S  T  T  S  E   E   T  T  S  T  T  S  T  T  S  
--49--57-------57-------57--57--57-------57-------57-------|
--57-------------------------------------------------------|
---------------40------------------------40----------------|
-----------------------------------------------------------|
-----------------------------------------------------------|
--35--35-35-35-35-35-35-35--35--35-35-35-35-35-35-35-35-35-|


   E   E   S  S  S  S  S  S  E   S  S  S  S  
--57--57--57----57----57----57--57----57----|
--------------------------------------------|
----------40--------------------40-------40-|
--------------------------------------------|
--------------------------------------------|
--35--35--35-35-35-35----35-35--35-35-35----|


   E   T  T  S  T  T  S  E   E   T  T  S  T  T  S  T  T  S  
--49--57-------57-------57--57--57-------57-------57-------|
--57-------------------------------------------------------|
---------------40------------------------40----------------|
-----------------------------------------------------------|
-----------------------------------------------------------|
--35--35-35-35-35-35-35-35--35--35-35-35-35-35-35-35-35-35-|


   E   E   S  S  S  S  S  S  E   S  S  S  T  T  
--57--57--57----57----57----57--57----57-------|
-----------------------------------------------|
----------40--------------------40-40----40-40-|
-----------------------------------------------|
-----------------------------------------------|
--35--35--35-35-35-35----35-35--35-35-35-------|


   E   T  T  T  T  E   E   T  T  T  T  E   E   T  T  T  T  
--49--49----------49--49--49----------49--49--49----------|
--57------------------------------------------------------|
------------------40----------------------40--------------|
----------------------------------------------------------|
----------------------------------------------------------|
--35--35-35-35-35-35------35-35-35-35-35--35--35-35-35-35-|


   E   T  T  T  T  E   E   T  T  T  T  E   S  T  T  T  T  T  T  
--57--46----------46--46--46----------46--49-------------------|
---------------------------------------------------------------|
------------------40----------------------40-------------------|
---------------------------------------------------------------|
---------------------------------------------47-47-47-45-45-45-|
--35--35-35-35-35-35------35-35-35-35-35--35-------------------|


   S  S  S  S  S  S  T  T  T  T  S  S  T  T  T  T  S  S  S  S  
--49----46----46----46----------46----46----------46----46----|
--57----------------------------------------------------------|
--------------40----------------------------------40----------|
--------------------------------------------------------------|
--------------------------------------------------------------|
--35-35-35-35-35-35-35-35-35-35-35-35-35-35-35-35-35-35-35-35-|


   S  S  S  S  S  S  T  T  T  T  S  S  T  T  T  T  S  S  S  S  
--46----46----46----46----------46----46----------46----46----|
--------------------------------------------------------------|
--------------40----------------------------------40-------40-|
--------------------------------------------------------------|
--------------------------------------------------------------|
--35-35-35-35-35-35-35-35-35-35-35-35-35-35-35-35-35-35-35-35-|


   S  S  S  S  S  S  T  T  T  T  S  S  T  T  T  T  S  S  S  S  
--46----46----46----46----------46----46----------46----46----|
--------------------------------------------------------------|
--------------40----------------------------------40----------|
--------------------------------------------------------------|
--------------------------------------------------------------|
--35-35-35-35-35-35-35-35-35-35-35-35-35-35-35-35-35-35-35-35-|


   S  S  S  S  S  S  T  T  T  T  S  S  T  T  T  T  S  S  S  T  T  
--46----46----46----46----------46----46----------46----46-------|
-----------------------------------------------------------------|
--------------40----------------------------------40-------40-40-|
-----------------------------------------------------------------|
-----------------------------------------------------------------|
--35-35-35-35-35-35-35-35-35-35-35-35-35-35-35-35-35-35-35-35----|


   S  S  S  S  S  S  T  T  T  T  S  S  T  T  T  T  S  S  S  S  
--49----46----46----46----------46----46----------46----46----|
--46----------------------------------------------------------|
--------------40----------------------------------40----------|
--------------------------------------------------------------|
--------------------------------------------------------------|
--35-35-35-35-35-35-35-35-35-35-35-35-35-35-35-35-35-35-35-35-|


   S  S  S  S  S  S  T  T  T  T  S  S  T  T  T  T  S  S  S  S  
--46----46----46----46----------46----46----------46----46----|
--------------------------------------------------------------|
--------------40----------------------------------40-------40-|
--------------------------------------------------------------|
--------------------------------------------------------------|
--35-35-35-35-35-35-35-35-35-35-35-35-35-35-35-35-35-35-35-35-|


   S  S  S  S  S  S  T  T  T  T  S  S  T  T  T  T  S  S  S  S  
--46----46----46----46----------46----46----------46----46----|
--------------------------------------------------------------|
--------------40----------------------------------40----------|
--------------------------------------------------------------|
--------------------------------------------------------------|
--35-35-35-35-35-35-35-35-35-35-35-35-35-35-35-35-35-35-35-35-|


   S  S  S  S  S  S  T  T  T  T  S  S  T  T  T  T  S  S  S  T  T  
--46----46----46----46----------46----46----------46----46-------|
-----------------------------------------------------------------|
--------------40----------------------------------40-------40-40-|
-----------------------------------------------------------------|
-----------------------------------------------------------------|
--35-35-35-35-35-35-35-35-35-35-35-35-35-35-35-35-35-35-35-35----|


   S  S  S  S  S  S  E   S  S  S  S  S  S  S  S  
--49----49----49----49--49----49----49----49----|
--57--------------------------------------------|
--------------40--------------------40----------|
------------------------------------------------|
------------------------------------------------|
--35-35-35-35-35-35-35--35-35-35-35-35-35-35-35-|


   S  S  S  S  S  S  E   S  S  S  S  S  S  S  S  
--49----49----49----49--49----49----------------|
------------------------------------------------|
--------------40-----------------40-------------|
------------------------------------------------|
------------------------------------47-45-43-45-|
--35-35-35-35-35-35-35--35-35-35-35-35-35-35-35-|


   S  S  S  S  S  S  E   S  S  S  S  S  S  S  S  
--49----49----49----49--49----49----49----49----|
------------------------------------------------|
--------------40--------------------40----------|
------------------------------------------------|
------------------------------------------------|
--35-35-35-35-35-35-35--35-35-35-35-35-35-35-35-|


   S  S  S  S  S  S  S  S  S  S  S  S  E   S  S  
--49----49----49----49----49----49----49--------|
------------------------------------------------|
--------------40----------------------40--40-40-|
------------------------------------------------|
------------------------------------------------|
--35-35-35-35-35-35-35-35-35-35-35-35-35--35-35-|


   S  S  S  S  S  S  E   S  S  S  S  S  S  S  S  
--49----49----49----49--49----49----49----49----|
--57--------------------------------------------|
--------------40--------------------40----------|
------------------------------------------------|
------------------------------------------------|
--35-35-35-35-35-35-35--35-35-35-35-35-35-35-35-|


   S  S  S  S  S  S  E   S  S  S  S  S  S  S  S  
--49----49----49----49--49----49----------------|
------------------------------------------------|
--------------40-----------------40-------------|
------------------------------------------------|
------------------------------------47-45-43-45-|
--35-35-35-35-35-35-35--35-35-35-35-35-35-35-35-|


   S  S  S  S  S  S  E   S  S  S  S  S  S  S  S  
--49----49----49----49--49----49----49----49----|
------------------------------------------------|
--------------40--------------------40----------|
------------------------------------------------|
------------------------------------------------|
--35-35-35-35-35-35-35--35-35-35-35-35-35-35-35-|


   S  S  S  S  S  S  S  S  S  S  S  S  E   S  S     W                 
--49----49----49----49----49----49----49--------|--49----------------|
------------------------------------------------|--57----------------|
--------------40----------------------40--40-40-|--------------------|
------------------------------------------------|--------------------|
------------------------------------------------|--------------------|
--35-35-35-35-35-35-35-35-35-35-35-35-35--35-35-|--35----------------|


  W                   W                   W                 
-------------------|-------------------|-------------------|
-------------------|-------------------|-------------------|
-------------------|-------------------|-------------------|
-------------------|-------------------|-------------------|
-------------------|-------------------|-------------------|
-------------------|-------------------|-------------------|


   E   T  T  S  T  T  S  E   E   T  T  S  T  T  S  T  T  S  
--49--57-------57-------57--57--57-------57-------57-------|
--57-------------------------------------------------------|
---------------40------------------------40----------------|
-----------------------------------------------------------|
-----------------------------------------------------------|
--35--35-35-35-35-35-35-35--35--35-35-35-35-35-35-35-35-35-|


   E   E   S  S  S  S  S  S  E   S  S  S  S  
--57--57--57----57----57----57--57----57----|
--------------------------------------------|
----------40--------------------40-------40-|
--------------------------------------------|
--------------------------------------------|
--35--35--35-35-35-35----35-35--35-35-35----|


   E   T  T  S  T  T  S  E   E   T  T  S  T  T  S  T  T  S  
--49--57-------57-------57--57--57-------57-------57-------|
--57-------------------------------------------------------|
---------------40------------------------40----------------|
-----------------------------------------------------------|
-----------------------------------------------------------|
--35--35-35-35-35-35-35-35--35--35-35-35-35-35-35-35-35-35-|


   E   E   S  S  S  S  S  S  E   S  S  S  T  T  
--57--57--57----57----57----57--57----57-------|
-----------------------------------------------|
----------40--------------------40-------40-40-|
-----------------------------------------------|
-----------------------------------------------|
--35--35--35-35-35-35----35-35--35-35-35-------|


   E   T  T  S  T  T  S  E   E   T  T  S  T  T  S  T  T  S  
--49--57-------57-------57--57--57-------57-------57-------|
--57-------------------------------------------------------|
---------------40------------------------40----------------|
-----------------------------------------------------------|
-----------------------------------------------------------|
--35--35-35-35-35-35-35-35--35--35-35-35-35-35-35-35-35-35-|


   E   E   S  S  S  S  S  S  E   S  S  S  S  
--57--57--57----57----57----57--57----57----|
--------------------------------------------|
----------40--------------------40-------40-|
--------------------------------------------|
--------------------------------------------|
--35--35--35-35-35-35----35-35--35-35-35----|


   E   T  T  S  T  T  S  E   E   T  T  S  T  T  S  T  T  S  
--49--57-------57-------57--57--57-------57-------57-------|
--57-------------------------------------------------------|
---------------40------------------------40----------------|
-----------------------------------------------------------|
-----------------------------------------------------------|
--35--35-35-35-35-35-35-35--35--35-35-35-35-35-35-35-35-35-|


   E   E   S  S  S  S  S  S  E   S  S  S  T  T     H.           E   T  T  T  T  
--57--57--57----57----57----57--57----57-------|--49------------L--------------|
-----------------------------------------------|--57------------L--------------|
----------40--------------------40-40----40-40-|-------------------------------|
-----------------------------------------------|-------------------------------|
-----------------------------------------------|-------------------------------|
--35--35--35-35-35-35----35-35--35-35-35-------|--35------------L--35-35-35-35-|


   W                   W                   W                 
--57----------------|-------------------|-------------------|
--------------------|-------------------|-------------------|
--------------------|-------------------|-------------------|
--------------------|-------------------|-------------------|
--------------------|-------------------|-------------------|
--35----------------|-------------------|-------------------|


  W                 
-------------------|
-------------------|
-------------------|
-------------------|
-------------------|
-------------------|


   S  T  T  T  S. T  T  T  T  E   S  T  T  T  S. T  T  T  T  S  T  T  
--57-------52----52----------52--52-------52----52----------52-------|
---------------------------------------------------------------------|
-----------------40-----------------------------40-------------------|
---------------------------------------------------------------------|
---------------------------------------------------------------------|
-----35-35-35-35-35-35-35-35--------35-35-35-35-35-35-35-35----35-35-|


   S  T  T  T  S. T  T  T  T  E   S  T  T  T  S. T  T  T  T  S  T  T  
--52-------52----52----------52--52-------52----52----------52-------|
---------------------------------------------------------------------|
-----------------40-----------------------------40-------------40----|
---------------------------------------------------------------------|
---------------------------------------------------------------------|
-----35-35-35-35-35-35-35-35--------35-35-35-35-35-35-35-35----35-35-|


   S  T  T  T  S. T  T  T  T  E   S  T  T  T  S. T  T  T  T  S  T  T  
--52-------52----52----------52--52-------52----52----------52-------|
---------------------------------------------------------------------|
-----------------40-----------------------------40-------------------|
---------------------------------------------------------------------|
---------------------------------------------------------------------|
-----35-35-35-35-35-35-35-35--------35-35-35-35-35-35-35-35----35-35-|


   S  T  T  T  S. T  T  T  T  E   S  T  T  T  S. T  T  T  T  S  T  T  
--52-------52----52----------52--52-------52----52----------52-------|
---------------------------------------------------------------------|
-----------------40-----------------------------40-------------40-40-|
---------------------------------------------------------------------|
---------------------------------------------------------------------|
-----35-35-35-35-35-35-35-35--------35-35-35-35-35-35-35-35----35-35-|


   S  T  T  T  S. T  T  T  T  E   S  T  T  T  S. T  T  T  T  S  T  T  
--57-------52----52----------52--52-------52----52----------52-------|
---------------------------------------------------------------------|
-----------------40-----------------------------40-------------------|
---------------------------------------------------------------------|
---------------------------------------------------------------------|
-----35-35-35-35-35-35-35-35--------35-35-35-35-35-35-35-35----35-35-|


   S  T  T  T  S. T  T  T  T  E   S  T  T  T  S. T  T  T  T  S  T  T  
--52-------52----52----------52--52-------52----52----------52-------|
---------------------------------------------------------------------|
-----------------40-----------------------------40-------------40----|
---------------------------------------------------------------------|
---------------------------------------------------------------------|
-----35-35-35-35-35-35-35-35--------35-35-35-35-35-35-35-35----35-35-|


   S  T  T  T  S. T  T  T  T  E   S  T  T  T  S. T  T  T  T  S  T  T  
--52-------52----52----------52--52-------52----52----------52-------|
---------------------------------------------------------------------|
-----------------40-----------------------------40-------------------|
---------------------------------------------------------------------|
---------------------------------------------------------------------|
-----35-35-35-35-35-35-35-35--------35-35-35-35-35-35-35-35----35-35-|


   S  T  T  T  S. T  T  T  T  E   S  T  T  T  S. T  T  T  T  S  T  T  
--52-------52----52----------52--52-------52----52----------52-------|
---------------------------------------------------------------------|
-----------------40-----------------------------40-------------40-40-|
---------------------------------------------------------------------|
---------------------------------------------------------------------|
-----35-35-35-35-35-35-35-35--------35-35-35-35-35-35-35-35----35-35-|


   S  T  T  T  S. T  T  T  T  E   S  T  T  T  S. T  T  T  T  S  T  T  
--57-------52----52----------52--52-------52----52----------52-------|
---------------------------------------------------------------------|
-----------------40-----------------------------40-------------------|
---------------------------------------------------------------------|
---------------------------------------------------------------------|
-----35-35-35-35-35-35-35-35--------35-35-35-35-35-35-35-35----35-35-|


   S  T  T  T  S. T  T  T  T  E   S  T  T  T  S. T  T  T  T  S  T  T  
--52-------52----52----------52--52-------52----52----------52-------|
---------------------------------------------------------------------|
-----------------40-----------------------------40-------------40----|
---------------------------------------------------------------------|
---------------------------------------------------------------------|
-----35-35-35-35-35-35-35-35--------35-35-35-35-35-35-35-35----35-35-|


   S  T  T  T  S. T  T  T  T  E   S  T  T  T  S. T  T  T  T  S  T  T  
--52-------52----52----------52--52-------52----52----------52-------|
---------------------------------------------------------------------|
-----------------40-----------------------------40-------------------|
---------------------------------------------------------------------|
---------------------------------------------------------------------|
-----35-35-35-35-35-35-35-35--------35-35-35-35-35-35-35-35----35-35-|


   S  T  T  T  S. T  T  T  T  E   S  T  T  T  S. T  T  T  T  S  T  T  
--52-------52----52----------52--52-------52----52----------52-------|
---------------------------------------------------------------------|
-----------------40-----------------------------40-------------40-40-|
---------------------------------------------------------------------|
---------------------------------------------------------------------|
-----35-35-35-35-35-35-35-35--------35-35-35-35-35-35-35-35----35-35-|


   S  T  T  T  S. T  T  T  T  E   S  T  T  T  S. T  T  T  T  S  T  T  
--57-------52----52----------52--52-------52----52----------52-------|
---------------------------------------------------------------------|
-----------------40-----------------------------40-------------------|
---------------------------------------------------------------------|
---------------------------------------------------------------------|
-----35-35-35-35-35-35-35-35--------35-35-35-35-35-35-35-35----35-35-|


   S  T  T  T  S. T  T  T  T  E   S  T  T  T  S. T  T  T  T  S  T  T  
--52-------52----52----------52--52-------52----52----------52-------|
---------------------------------------------------------------------|
-----------------40-----------------------------40-------------40----|
---------------------------------------------------------------------|
---------------------------------------------------------------------|
-----35-35-35-35-35-35-35-35--------35-35-35-35-35-35-35-35----35-35-|


   S  T  T  T  S. T  T  T  T  E   S  T  T  T  S. T  T  T  T  S  T  T  
--52-------52----52----------52--52-------52----52----------52-------|
---------------------------------------------------------------------|
-----------------40-----------------------------40-------------------|
---------------------------------------------------------------------|
---------------------------------------------------------------------|
-----35-35-35-35-35-35-35-35--------35-35-35-35-35-35-35-35----35-35-|


   S  T  T  T  S. T  T  T  T  E   S  T  T  T  S. T  T  T  T  S  T  T  
--57-------52----57----------52--49-------49----49----------49-------|
---------------------------------------------------------------------|
-----------------40--------------40-------40----40-------40----40-40-|
---------------------------------------------------------------------|
---------------------------------------------------------------------|
-----35-35-35-35-35-35-35-35--------35-35-35-35-35-35-35-35----35-35-|


   T  T  T  T  T  T  T  T  S  S  S  S  S  S  T  T  T  T  S  S  E   
--49----------------------57----------57----------------57--------|
--57--------------------------------------------------------------|
--------------------------40----------------------------40--------|
------------------------------------------------------------------|
------------------------------------------------------------------|
--35-35-35-35-35-35-35-35-35-35-35-35----35-35-35-35-35-35-35-35--|


   T  T  T  T  T  T  T  T  S  S  S  S  S  S  T  T  T  T  S  S  S  S  
--57----------------------57----------57----------------57----------|
--------------------------------------------------------------------|
--------------------------40----------------------------40-------40-|
--------------------------------------------------------------------|
--------------------------------------------------------------------|
--35-35-35-35-35-35-35-35-35-35-35-35----35-35-35-35-35-35-35-35----|


   T  T  T  T  T  T  T  T  S  S  S  S  S  S  T  T  T  T  S  S  E   
--57----------------------57----------57----------------57--------|
------------------------------------------------------------------|
--------------------------40----------------------------40--------|
------------------------------------------------------------------|
------------------------------------------------------------------|
--35-35-35-35-35-35-35-35-35-35-35-35----35-35-35-35-35-35-35-35--|


   T  T  T  T  T  T  T  T  S  S  S  S  S  S  T  T  T  T  S  S  S  T  T  
--57----------------------57----------57----------------57-------------|
-----------------------------------------------------------------------|
--------------------------40----------------------------40-------40-40-|
-----------------------------------------------------------------------|
-----------------------------------------------------------------------|
--35-35-35-35-35-35-35-35-35-35-35-35----35-35-35-35-35-35-35-35-------|


   T  T  T  T  T  T  T  T  S  S  S  S  S  S  T  T  T  T  S  S  E   
--49----------------------57----------57----------------57--------|
--57--------------------------------------------------------------|
--------------------------40----------------------------40--------|
------------------------------------------------------------------|
------------------------------------------------------------------|
--35-35-35-35-35-35-35-35-35-35-35-35----35-35-35-35-35-35-35-35--|


   T  T  T  T  T  T  T  T  S  S  S  S  S  S  T  T  T  T  S  S  S  S  
--57----------------------57----------57----------------57----------|
--------------------------------------------------------------------|
--------------------------40----------------------------40-------40-|
--------------------------------------------------------------------|
--------------------------------------------------------------------|
--35-35-35-35-35-35-35-35-35-35-35-35----35-35-35-35-35-35-35-35----|


   T  T  T  T  T  T  T  T  S  S  S  S  S  S  T  T  T  T  S  S  E   
--57----------------------57----------57----------------57--------|
------------------------------------------------------------------|
--------------------------40----------------------------40--------|
------------------------------------------------------------------|
------------------------------------------------------------------|
--35-35-35-35-35-35-35-35-35-35-35-35----35-35-35-35-35-35-35-35--|


   T  T  T  T  T  T  T  T  S  S  S  S  S  S  T  T  T  T  S  S  S  T  T  
--57----------------------57----------57----------------57-------------|
-----------------------------------------------------------------------|
--------------------------40----------------------------40-40-40-40-40-|
-----------------------------------------------------------------------|
-----------------------------------------------------------------------|
--35-35-35-35-35-35-35-35-35-35-35-35----35-35-35-35-35-35-35-35-------|


   W                   W                   W                 
--49----------------|-------------------|-------------------|
--57----------------|-------------------|-------------------|
--------------------|-------------------|-------------------|
--------------------|-------------------|-------------------|
--------------------|-------------------|-------------------|
--35----------------|-------------------|-------------------|


  W                   W                   W                   W                 
-------------------|-------------------|-------------------|-------------------|
-------------------|-------------------|-------------------|-------------------|
-------------------|-------------------|-------------------|-------------------|
-------------------|-------------------|-------------------|-------------------|
-------------------|-------------------|-------------------|-------------------|
-------------------|-------------------|-------------------|-------------------|


  W                   W                   W                   W                 
-------------------|-------------------|-------------------|-------------------|
-------------------|-------------------|-------------------|-------------------|
-------------------|-------------------|-------------------|-------------------|
-------------------|-------------------|-------------------|-------------------|
-------------------|-------------------|-------------------|-------------------|
-------------------|-------------------|-------------------|-------------------|


  W                   W                  
-------------------|-------------------||
-------------------|-------------------||
-------------------|-------------------||
-------------------|-------------------||
-------------------|-------------------||
-------------------|-------------------||




Duration Legend
---------------
W - whole
H - half
Q - quarter
E - 8th
S - 16th
T - 32nd
X - 64th
. - note dotted
|-n-|  - n-tuplets


Tablature Legend
----------------
27 - High Q
28 - Slap
29 - Scratch Push
30 - Scratch Pull
31 - Sticks
32 - Square Click
33 - Metronome Click
34 - Metronome Bell
35 - Acoustic Bass Drum
36 - Bass Drum 1
37 - Side Stick
38 - Acoustic Snare
39 - Hand Clap
40 - Electric Snare
41 - Low Floor Tom
42 - Closed Hi-Hat
43 - High Floor Tom
44 - Pedal Hi-Hat
45 - Low Tom
46 - Open Hi-Hat
47 - Low-Mid Tom
48 - Hi-Mid Tom
49 - Crash Cymbal I
50 - High Tom
51 - Ride Cymbal 1
52 - Chinese Cymbal
53 - Ride Bell
54 - Tambourine
55 - Splash Cymbal
56 - Cowbell
57 - Crash Cymbal 2
58 - Vibraslap
59 - Ride Cymbal 2
60 - High Bongo
61 - Low Bongo
62 - Mute Hi Conga
63 - Open Hi Conga
64 - Low Conga
65 - High Timbale
66 - Low Timbale
67 - High Agogo
68 - Low Agogo
69 - Cabasa
70 - Maracas
71 - Short Whistle
72 - Long Whistle
73 - Short Guiro
74 - Long Guiro
75 - Claves
76 - High Wood Block
77 - Low Wood Block
78 - Mute Cuica
79 - Open Cuica
80 - Mute Triangle
81 - Open Triangle
82 - Shaker
83 - Jingle Bell
84 - Bell Tree
85 - Castanets
86 - Mute Surdo
87 - Open Surdo
Tap to rate this tab
# A B C D E F G H I J K L M N O P Q R S T U V W X Y Z