Song name
# A B C D E F G H I J K L M N O P Q R S T U V W X Y Z

Dropbox - I Feel Fine tab

----------------------------------------------------------------------------
			     I Feel Fine - Dropbox
----------------------------------------------------------------------------
Tabbed by:arcains_valor
Email:arcains_valor@yahoo.com

Tuning:from low to high
       CGCFAD 

You don't have to play the hammers.  I like to, but it still sounds good either way.
Intro 
  D|--------------------------------------|
  A|--------------------------------------|
  F|--------------------------------------|
  C|--------------------------------------|
  C|-3h5----6h5-3h5--5---3-6h5-3h5-6h5----|
  C|-----0-------------0---------------0--|
PM

  D|------------------------------------------|
  A|------------------------------------------|
  F|------------------------------------------|
  C|------------5-4---------------------------|
  C|-3h5-6h5--5------6-5--3h5----6h5-3h5--5---|
  C|--------------------------0-------------0-|
PM

  D|------------------------------------|
  A|------------------------------------|
  F|------------------------------------|
  C|------------------------5--5---3--3-|
  C|-3-6h5-3h5-6h5----3h5---5--5---3--3-|
  C|---------------0------0-5--5-0-3--3-|
PM                        .      .

Sorry, all i got is the intro so far, but more will come.  



| /  slide up
| \  slide down
| h  hammer-on
| p  pull-off
| ~  vibrato
| *  harmonic
| x  Mute note
| .  Palm Mute
============================================================================
Tap to rate this tab
# A B C D E F G H I J K L M N O P Q R S T U V W X Y Z