Guitaretab - guitar tabs
Song name
# A B C D E F G H I J K L M N O P Q R S T U V W X Y Z

Dropdead - Those Who We Deny tab

DROPDEAD  THOSE WHO WE DENY
E|--------------------------------------------------|
B|--------------------------------------------------|
G|--------------------------------------------------|  PLAY 4
D|-4-4-4-4-4-4-4-4-4-3-7-6-3-5-5-5-5-5-5-5-5-5-8-8-8|  TIMES
A|-4-4-4-4-4-4-4-4-4-3-7-6-3-5-5-5-5-5-5-5-5-5-8-8-8|
E|-2-2-2-2-2-2-2-2-2-1-5-4-1-3-3-3-3-3-3-3-3-3-6-6-6|

E|-------------|
B|-------------|
G|-------4-4-4-|  PLAY 4
D|-5-7-7-4-4-4-|  TIMES
A|-5-7-7-2-2-2-|
E|-2-5-5-------|

E|-------------|
B|-------------|
G|-------------|
D|-4-7-6-4-4-4-|
A|-4-7-6-4-4-4-|
E|-2-5-4-2-2-2-|
[ Tab from: http://www.guitaretab.com/d/dropdead/184003.html ]
E|-------------|
B|-------------|
G|-------4-4-4-|  PLAY 3
D|-5-7-7-4-4-4-|  TIMES
A|-5-7-7-2-2-2-|
E|-2-5-5-------|

E|-------------|
B|-------------|
G|-------------|
D|-4-7-6-4-4-4-|
A|-4-7-6-4-4-4-|
E|-2-5-4-2-2-2-|

E|-------------|
B|-------------|
G|-------4-4-4-|  PLAY 2
D|-5-7-7-4-4-4-|  TIMES
A|-5-7-7-2-2-2-|
E|-2-5-5-------|

E|-------------|
B|-------------|
G|-------------|  PLAY 8
D|-4-7-6-4-4-4-|  TIMES
A|-4-7-6-4-4-4-|
E|-2-5-4-2-2-2-|

E|-------------|
B|-------------|
G|-------4-4-4-|
D|-5-7-7-4-4-4-|
A|-5-7-7-2-2-2-|
E|-2-5-5-------|

By Rens van Bree aka HardcoreTabs

Dropdead link:
http://www.myspace.com/dropdead