Song name
# A B C D E F G H I J K L M N O P Q R S T U V W X Y Z

Dropkick Murphys - Famous For Nothing tab

-------------------------------------------------------------------------------
			     Famous for Nothing - Dropkick Murphys
-------------------------------------------------------------------------------


Tuning:Standard

Intro:
e|-------------------------------------------------1-111-11111-----|
B|----------------4-4-444-4---------4-444-44444-4--1-111-11111-----|
G|-3-333-33333--3-3-3-333-3-3-333-3-3-333-33333-3--2-222-22222-----|2x
D|-3-333-33333--3-1-1-111-1-3-333-3-1-111-11111-1--3-333-33333-----|
A|-1-111-11111--1-----------1-111-1----------------3-333-33333-----|
E|-----------------------------------------------------------------|

Verse
e|-----------------------------1-11----|
B|---------4-44--------4-44----1-11----|
G|-3-33----3-33--3-33--3-33----2-22----|4x
D|-3-33----1-11--3-33--1-11----3-33----|
A|-1-11----------1-11----------3-33----|
E|-------------------------------------|

Chorus:
e|----------------11-111--33-333------------------11-111-111--|
B|-44-444---------11-111--33-333---44-444---------11-111-111--|
G|-33-333-33-333--22-222--00-000---33-333-33-333--22-222-222--|
D|-11-111-33-333--33-333-----------11-111-33-333--33-333-333--|
A|--------11-111--33-333------------------11-111--33-333-333--|
E|------------------------------------------------------------|

e|----------------11-111--33-333------------------11-111-111--|
B|-44-444---------11-111--33-333---44-444-44-444--11-111-111--|
G|-33-333-33-333--22-222--00-000---33-333-33-333--22-222-222--|
D|-11-111-33-333--33-333-----------11-111-11-111--33-333-333--|
A|--------11-111--33-333--------------------------33-333-333--|
E|------------------------------------------------------------|

After Chorus:
e|------------------------------------------------------------|
B|---------4-444-4----------4-4-4-----------4-444-4-----------|
G|-3-333-3-3-333-3-3-333-3--3-3-3--3-333-3--3-333-3--3--------|
D|-3-333-3-1-111-1-3-333-3--1-1-1--3-333-3--1-111-1--3--------|
A|-1-111-1---------1-111-1---------1-111-1-----------1--------|
E|------------------------------------------------------------|

Then play the verse 4x, then back to the chorus.

"Their gang went...."
e|----------------11-111--33-333------------------11-111-111--|
B|-44-444---------11-111--33-333---44-444---------11-111-111--|
G|-33-333-33-333--22-222--00-000---33-333-33-333--22-222-222--|
D|-11-111-33-333--33-333-----------11-111-33-333--33-333-333--|
A|--------11-111--33-333------------------11-111--33-333-333--|
E|------------------------------------------------------------|

e|----------------11-111--33-333-0-000-0000--------------------|
B|-44-444---------11-111--33-333-5-555-5555--4-444-------444---|
G|-33-333-33-333--22-222--00-000-5-555-5555--3-333-3-333-333-3-|
D|-11-111-33-333--33-333---------5-555-5555--1-111-3-333-111-3-|
A|--------11-111--33-333---------3-333-3333--------1-111-----1-|
E|-------------------------------------------------------------|

"9 to 3 on weekdays..." (I didn't tab the note count here because they strum
 fast and it would take up to much space, not hard to figure out though.)
e|----------1-----------1---------|
B|--4-------1------4----1---------|
G|--3-------2------3----2---------|
D|--1-------3------1----3---------|
A|----------3-----------3---------|
E|--------------------------------|

Then back to "Their gang went..." a couple times, then end on this

Outro: On the last "The bells of St. Mary were ringin'"
e|---------------------------------------------------------------------------|
B|-----------------------------------4---------------------------------------|
G|----5-555-55555--8-8888888---\3----3--3------------------------------------|
D|----5-555-55555--8-8888888---\3----1--3------------------------------------|
A|----3-333-33333--6-6666666---\1-------1------------------------------------|
E|---------------------------------------------------------------------------|

That should be right. I saw someone had requested so i tabbed it.
Tap to rate this tab
# A B C D E F G H I J K L M N O P Q R S T U V W X Y Z