Song name
# A B C D E F G H I J K L M N O P Q R S T U V W X Y Z

Dropkick Murphys - Time To Go tab

Band: Dropkick Murphys
Song: Time To Go
Standard Tuning:(E A D G B E)
    (~ - Means Hold)
Im 90% sure this is right...

(Bagpipe or Accordeon transition)....Transition...i think thats the word...

|-0--------1--0-----------------|
|----3--1--------3--1-----1-----|
|----------------------2-----0--|
|-------------------------------|
|-------------------------------|
|-------------------------------|

|-0--------1--0----3~~~~~~3-----|
|----3--1--------3--------------|
|-------------------------------|
|-------------------------------|
|-------------------------------|
|-------------------------------|

|-0--------1--0-----------------|
|----3--1--------3--1-----1-----|
|----------------------2-----0--|
|-------------------------------|
|-------------------------------|
|-------------------------------|

|------------------0-------------|
|---------0--1--3-----3--1-----1-|
|-000--2--------------------2----|
|--------------------------------|
|--------------------------------|
|--------------------------------|

Thats it...just reapeat it a few time...EnJoY.
Tap to rate this tab
# A B C D E F G H I J K L M N O P Q R S T U V W X Y Z