Song name
# A B C D E F G H I J K L M N O P Q R S T U V W X Y Z

Dropkick Murphys - Fortunate Son tab

This is off their Singles Collection volume 2 of rare covers, b-sides etc.

Intro
|-----------------|
|---8---6---5---3-|
|-----------------|
|-9---7---5---4---|
|-----------------|
|-----------------|

Verse
|-----------------------------------------------------------------|
|-----------------------------------------------------------------|
|---------------------------------5-5-5-5-5-5-5-5-----------------|
|-5-5-5-5-5-5-5-5-3-3-3-3-3-3-3-3-5-5-5-5-5-5-5-5-5-5-5-5-5-5-5-5-|
|-5-5-5-5-5-5-5-5-3-3-3-3-3-3-3-3-3-3-3-3-3-3-3-3-5-5-5-5-5-5-5-5-|
|-3-3-3-3-3-3-3-3-1-1-1-1-1-1-1-1-----------------3-3-3-3-3-3-3-3-|

Chorus
|-----------------------------------------------------------------|
|-----------------------------------------------------------------|
|-----------------7-7-7-7-7-7-7-7-5-5-5-5-5-5-5-5-----------------|
|-5-5-5-5-5-5-5-5-7-7-7-7-7-7-7-7-5-5-5-5-5-5-5-5-5-5-5-5-5-5-5-5-|
|-5-5-5-5-5-5-5-5-5-5-5-5-5-5-5-5-3-3-3-3-3-3-3-3-5-5-5-5-5-5-5-5-|
|-3-3-3-3-3-3-3-3---------------------------------3-3-3-3-3-3-3-3-|

Interlude
|---------------------|
|-8-8/6-6-6/1-1-1/3-3-|
|-9-9/7-7-7/2-2-2/4-4-|
|---------------------|
|---------------------|
|---------------------|

I don't know the solo but it's probably pretty simple and I'll probably tab it eventually.


Tap to rate this tab
# A B C D E F G H I J K L M N O P Q R S T U V W X Y Z