Song name
# A B C D E F G H I J K L M N O P Q R S T U V W X Y Z

Dropkick Murphys - Guns Of Brixton tab

Artist:Dropkick Murphys
Track:Guns Of Brixton(Clash Cover)
Album:The Singles Collection

INTRO:

F#m-ring B F#m-ring B G-ring B G-ring B-ring

E|--------------------------------------------------------------------|

B|--8-------------8---------------------------------------------------|

G|--9------4------9------4-------------4-------------4----------------|

D|--9------4------9------4------5------4------5------4----------------|

A|--7------2------7------2------5------2------5------2----------------|

E|------------------------------3-------------3-----------------------|

WHEN THEY...

Kick at your...

F# B F# B G B G B

E|--------------------------------------------------------------------|

B|--------------------------------------------------------------------|

G|----------4-4-4-4---------4-4-4-4---------4-4-4-4---------4-4-4-4---|

D|--4-4-4-4-4-4-4-4-4-4-4-4-4-4-4-4-5-5-5-5-4-4-4-4-5-5-5-5-4-4-4-4---|

A|--4-4-4-4-2-2-2-2-4-4-4-4-2-2-2-2-5-5-5-5-2-2-2-2-5-5-5-5-2-2-2-2---|

E|--2-2-2-2---------2-2-2-2---------3-3-3-3---------3-3-3-3-----------|



CHORUS:

You can crush us... Ohhhhh Oh The Guns of Brixton

F# B F# B G B G B

E|--------------------------------------------------------------------|

B|--------------------------------------------------------------------|

G|----------4-4-4-4---------4-4-4-4---------4-4-4-4---------4-4-4-4---|

D|--4-4-4-4-4-4-4-4-4-4-4-4-4-4-4-4-5-5-5-5-4-4-4-4-5-5-5-5-4-4-4-4---|

A|--4-4-4-4-2-2-2-2-4-4-4-4-2-2-2-2-5-5-5-5-2-2-2-2-5-5-5-5-2-2-2-2---|

E|--2-2-2-2---------2-2-2-2---------3-3-3-3---------3-3-3-3-----------|



BRIDGE:

F#m-ring B F#m-ring B G-ring B G-ring B-ring

E|--------------------------------------------------------------------|

B|--8-------------8---------------------------------------------------|

G|--9------4------9------4-------------4-------------4----------------|

D|--9------4------9------4------5------4------5------4----------------|

A|--7------2------7------2------5------2------5------2----------------|

E|------------------------------3-------------3-----------------------|



Shot down on the pavement...

F# B F# B G B G B

E|--------------------------------------------------------------------|

B|--------------------------------------------------------------------|

G|----------4-4-4-4---------4-4-4-4---------4-4-4-4---------4-4-4-4---|

D|--4-4-4-4-4-4-4-4-4-4-4-4-4-4-4-4-5-5-5-5-4-4-4-4-5-5-5-5-4-4-4-4---|

A|--4-4-4-4-2-2-2-2-4-4-4-4-2-2-2-2-5-5-5-5-2-2-2-2-5-5-5-5-2-2-2-2---|

E|--2-2-2-2---------2-2-2-2---------3-3-3-3---------3-3-3-3-----------|
Tap to rate this tab
 
# A B C D E F G H I J K L M N O P Q R S T U V W X Y Z