Song name
# A B C D E F G H I J K L M N O P Q R S T U V W X Y Z

Dropkick Murphys - Johnny I Hardly Knew Ya tab

-------------------------------------------------------------------------------
			     SONG NAME - Band Name
-------------------------------------------------------------------------------
Tabbed by: GuitarNooblet
Email: carlosemeza1@aol.com

Tuning: Standard!

E|----0~-----------------------------------------0*---------------------------|
B|----0~-----------------------------------------0*---------------------------|
g|----0~-----------------------------------------0*---------------------------|
d|----0~(Bend all notes from guitar neck 3 times)0*---------------------------|
a|----0~-----------------------------------------0*---------------------------|
e|----0~-----------------------------------------0*---------------------------|

e|---------------------------------------------------------------------------|
B|---------------------------------------------------------------------------|
G|-7--9--99999--11-12-11-12--9-7---4-7--4///7-9--99999--11-12-11-12----------|
D|---------------------------------------------------------------------------|
A|---------------------------------------------------------------------------|
E|---------------------------------------------------------------------------|

e|---------------------------------------------------------------------------|
B|---------------------------------------------------------------------------|
G|14-16-12//14-16--12//14--16--1616161616-17-16-14--1414141414--16-14--------|
D|---------------------------------------------------------------------------|
A|---------------------------------------------------------------------------|
E|---------------------------------------------------------------------------|

e|---------------------------------------------------------------------------|
B|---------------------------------------------------------------------------|
G|12--1212121212--14-12-11~~~~--12///14--16-14p12-14-12p11--12-11p9----------|
D|---------------------------------------------------------------------------|
A|---------------------------------------------------------------------------|
E|---------------------------------------------------------------------------|

e|---------------------------------------------------------------------------|
B|---------------------------------------------------------------------------|
G|11-9p7-7///9-99999-7-9~~~--------------------------------------------------|
D|---------------------------------------------------------------------------|
A|---------------------------------------------------------------------------|
E|---------------------------------------------------------------------------|

2nd time you do the intro, skip the chord bending, and instead of play 7-9, you wanna 
by sliding from 4 to 7 then continue the rest of the tabluture. Hope this helps!!! I had 
xD


| /  slide up
| \  slide down
| h  hammer-on
| p  pull-off
| ~  vibrato
| +  harmonic
| x  Mute note
===============================================================================
Tap to rate this tab
# A B C D E F G H I J K L M N O P Q R S T U V W X Y Z