Song name
# A B C D E F G H I J K L M N O P Q R S T U V W X Y Z

Dropkick Murphys - State Of Massachusetts tab

   The State Of Massachusetts by Dropkick Murphys
   tabbed by: tony_why_me

   E|--------------------------------------------------|
   B|--------------------------------------------------|
   G|----77-777-0--------------------------------------|
   D|------------3-33p0--------------------------------|
   A|-------------------3-33p0---5-55------------------|
   E|--------------------------------------------------|


   E|--------------------------------------------------|
   B|--------------------------------------------------|
   G|----77-777-0--------------------------------------|
   D|------------3-33p0--------------------------------|
   A|-------------------3-33p0---5-55------------------|
   E|--------------------------------------------------|


   E|---------------------------------------------------|
   B|---------------------------------------------------|
   G|----77-777-0---10--10-10---------------------------|
   D|-------------------------10--10-10-10--------------|
   A|--------------------------------------7-77---------|
   E|---------------------------------------------------|


   E|---------------------------------------------------|
   B|---------------------------------------------------|
   G|----77-777-0---10--10-10---------------------------|
   D|-------------------------10--10-10-10--------------|
   A|--------------------------------------7-77---------|
   E|---------------------------------------------------|


    Really fast part, not perfect, but close. tanks to WARNINGnimrod12

   E|-----------------------------------------------|
   B|-----------------------------------------------|
   G|-----7-----9-----10-----14-----12-----10-------|
   D|-------0-0---0-0----0-0----0-0----0-0----0-0---|
   A|-----------------------------------------------|
   E|-----------------------------------------------|


   E|-----------------------------------------|
   B|-----------------------------------------|
   G|-----------------------------------------|
   D|---7-7-7-7-7-7-7-7-7-7-7-7-7-------(5)---|
   A|---7-7-7-7-7-7-7-7-7-7-7-7-7--5--3--3----|
   E|---5-5-5-5-5-5-5-5-5-5-5-5-5--3--1-------|
Tap to rate this tab
# A B C D E F G H I J K L M N O P Q R S T U V W X Y Z