Song name
# A B C D E F G H I J K L M N O P Q R S T U V W X Y Z

Dropkick Murphys - State Of Massachusetts tab

I found an easier way to play this song. I was bored and here we go.
It keeps your fingers closer together for faster fingering I find let me know what you think.



-------------------------------------------------------|
-333-3-------------------------------------------------|
-------2-0-------0-2-----------------------------------|
------------3-33------------------------------------x2-|
---------------------3-33-0-3-5555---------------------|
-------------------------------------------------------|


-----------1-11-0------------------------------------|
-3-33-------------3--1111---1--2222------------------|
------2-0-----------------2--------------------------|
-----------------------------------------------------|
-----------------------------------------------------|
-----------------------------------------------------|

this part is played with the 3rd string note then the 4th string open and 
then pulloff the 3rd string. To give you that 5 string banjo sound.
-------------------------------------|
-------------------------------------| 
--7p0-9p0-10p0-14p0-12p0-10p0-9p0----|   
---0---0----0----0----0----0---0-----|  
-------------------------------------|
-------------------------------------|

Then the rest of the song.
Tap to rate this tab
 
# A B C D E F G H I J K L M N O P Q R S T U V W X Y Z