Song name
# A B C D E F G H I J K L M N O P Q R S T U V W X Y Z

Dropkick Murphys - Johnny I Hardly Knew Ya tab

E|-----------------------------------|
B|-----------------------------------|
G|-----------------------------------|
D|---2-22222 4-5-4-5--2--------------|
A|-5--------------------55555555-2-5-|
E|-----------------------------------|

E|----------------------------------------|
B|----------------------------------------|
G|-----------------------2-444444---44444-|
D|-------22222-4-5-4-5------------5-------|
A|-0h2-5----------------------------------|
E|----------------------------------------|


E|---------------------------------------------------------------------|
B|---------------------------------------------------------------------|
G|--2-444444--5-4-2-2222222-4-2-----------2----------------------------|
D|-5---------------------------5-555555-----5-4-444444-----------------|
A|---------------------------------------------------------------------|
E|---------------------------------------------------------------------|

E|---------------------------------------------------------------------|
B|---2-4-2---2---------------------------------------------------------|
G|-5-------5--5-4-5-4-2-4-5-4-2-22222222---2---------------------------|
D|---------------------------------------5-----------------------------|
A|---------------------------------------------------------------------|
E|---------------------------------------------------------------------|


This is NOT my first tab (I just feel the need to state that because everyone always 
it is their first tab so I'm going to be different)
Tap to rate this tab
 
# A B C D E F G H I J K L M N O P Q R S T U V W X Y Z