Song name
# A B C D E F G H I J K L M N O P Q R S T U V W X Y Z

Dropkick Murphys - Last Letter Home tab

-------------------------------------------------------------------------------
			Last Letter Home - Dropkick Murphys
-------------------------------------------------------------------------------
Tabbed by:bb155558
My first tab!!!! Figured this out one day while just messing around.
A great song. Since There were no tabs for it, I though I would contribute
Sorry about the no solo part. I couldn't figure that out.
I'm not good at tabbing
Tuning:Standard
For rythmn just listen to the song.
P.S. My tabbing is a little messy, those numbers below are chords
Intro
e|---------------------------------------------------------------------------------|
B|---------------------------------------------------------------------------------|
G|---------------------------------------------------------------------------------|
D|------8------------8------------8---------------8--------------------------------|
A|------8------------8------------8---------------8--------------------------------|
E|------6------------6------------6---------------6--------------------------------|

e|--------------------------------------------------------------------------------------|
B|--------------------------------------------------------------------------------------|
G|--------------------------------------------------------------------------------------|
D|------8---------8---------8--x2----------- 6 ---- 6-------6---------------------------|
A|------8---------8---------8----------------6----- 6-------6---------------------------|
E|------6---------6---------6----------------4------4-------4---------------------------|

e|------------------------------------------------------------------------------------|
B|------------------------------------------------------------------------------------|
G|------------------------------------------------------------------------------------|
D|------8-------8-----8---x2----------------6------6--------6-------------------------|
A|------8-------8-----8---------------------6------6--------6-------------------------|
E|------6-------6-----6---------------------4------4--------4-------------------------|
Repeat these over and over in verse in same pattern. Just a lot faster.
Like I said listen to the song
Chorus (same rythmn as second intro


************************************

| /   slide up
| \   slide down
| h   hammer-on
| p   pull-off
| ~   vibrato
| +   harmonic
| x   Mute note
| b   Bend
| pb  Pre-bend
| br  Bend release
| pbr Pre-bend release
| brb Bend release bend

************************************
Tap to rate this tab
 
# A B C D E F G H I J K L M N O P Q R S T U V W X Y Z