Dropkick Murphys - The Dirty Water tab

-------------------------------------------------------------------------------
			     Dirty Water - Dropkick Murphys
-------------------------------------------------------------------------------
Tabbed by: Tuck

Tuning: Standard

Off their live CD, beastly cover.

Intro
e|---------------------------------------------------------------------------|
B|---------------------------------------------------------------------------|
G|--------7-7-6--------------------------------------------------------------|
D|------7--------------------------------------------------------------------|
A|-s7-7----------------------------------------------------------------------|
E|---------------------------------------------------------------------------|

Verse
e|---------------------------------------------------------------------------|
B|---------------------------3-3---------------------------------------------|
G|-----------------------2-2-2-2-2-222---------------------------------------|
D|-------77----------2-2-2-2-0-0-2-222---------------------------------------|
A|-22-77-55-7777-----2-2-0-0-----0-000---------------------------------------|
E|-00-55----5555----x0-0-----------------------------------------------------|
Pm---------------

Chorus
e|---------------------------------------------------------------------------|
B|------------------------------3-3------------------------------------------|
G|-4-4-4-4-4-4-4-3-2--------2-2-2-2-2-222------------------------------------|
D|-4-4-4-4-4-4-4-3-2----2-2-2-2-0-0-2-222------------------------------------|
A|-2-2-2-2-2-2-2-1-0----2-2-0-0-----0-000------------------------------------|
E|----------------------0-0--------------------------------------------------|
Tap to rate this tab
 
# A B C D E F G H I J K L M N O P Q R S T U V W X Y Z