Dropkick Murphys - State Of Massachusetts tab

since bajo tabs r so hard to find i thought id feed u baby birds

the state of mass.
dropkick murphys
by: msettle79@yahoo.com
4 sting banjo

intro/main riff

---------------------------------------------|
-5--5-5--------------------------------------|
--------7-5-3-3-3-3-5-------------0-0-0-0-0--|
----------------------5-5-5-5-3p0------------| X2

--------------------------------------------|
5-5-5-----8-8-8-5-3-3-3-3-5-5-5-5-----------|
------7-5-----------------------------------| X1
--------------------------------------------|

---------------------------------------------|
-0-5-00-7-00-8-00-12-00-10-00-8-00-777777777-|
---------------------------------------------|
---------------------------------------------|

play this fast as hell
the 5-5-5-----|
    ------7-5-| are 2gether
its hard to get the rhythm
Tap to rate this tab
 
# A B C D E F G H I J K L M N O P Q R S T U V W X Y Z