Dropkick Murphys - State Of Massachusetts tab

This song is awesome, and also tells a great story (FYI: Is about a mom whose 
children were taken by the state)

The tabs in here weren't so good so I tabbed this one. Hope you like it

Guitar I : EADGBE (Nylon Acoustic OR Banjo Arrangement for Electric)
Guitar II: EADGBE (Distorsion Guitar)

120 bpm (6/4)


Intro:


Guitar I
   e  s s s s e  s s s s e s s s s s s s  s  s  s s 
E|-------------------------------------------------|
B|-------------------------------------------------|
G|-7--7-7------------------------------------------|
D|--------7-5--------5-7--------------------------7|
A|------------8--8-8-------------------------------|
E|-----------------------8--8-8-8-8-8/10-10-10-10--|

   e  s s s s e  s s s s e s s s s s s s  s  s  s s 
E|-------------------------------------------------|
B|-------------------------------------------------|
G|-7--7-7------------------------------------------|
D|--------7-5--------5-7--------------------------7|
A|------------8--8-8-------------------------------|
E|-----------------------8--8-8-8-8-8/10-10-10-10--|

   e  s s s s e  s s s s e  s s s s s s s s s
E|----------------------------------------------|
B|------------6--6-6-5--------------------------|
G|-7--7-7--------------7-5--5-5-5-5-5/7-7-7-7---|
D|--------7-5---------------------------------7-|
A|----------------------------------------------|
E|----------------------------------------------|

   s s s s s s s  s s s  s s s s s s  s s s e.+e
E|----------------------------------------------|
B|----------------------10-----8----------------|
G|---7-----9-----10------------------10-----7---|  (This is the only part
D|-0---0-0---0-0----0-0----0-0---0-0----0-0-----|   that is completely
A|----------------------------------------------|   guessed, maybe f***in'
E|----------------------------------------------|    wrong)

Guitar I
   W 
E|---|
B|---|
G|---|
D|---|
A|---|
E|---|

Guitar II
   s s s s s s s s s s s s s s s s s s s s e.
E|---------------------------------------------|
B|---------------------------------------------|
G|---------------------------------------------|
D|-7-7-7-7-7-7-7-7-7-7-7-7-7-7-7-7-7-7-7-:-7---|
A|-7-7-7-7-7-7-7-7-7-7-7-7-7-7-7-7-7-7-7-:-7---|
E|-5-5-5-5-5-5-5-5-5-5-5-5-5-5-5-5-5-5-5-:-5---|

Intro II

Guitar I 
   e  s s s s e  s s s s e s s s s s s s  s  s  s s 
E|-------------------------------------------------|
B|-------------------------------------------------|
G|-7--7-7------------------------------------------|
D|--------7-5--------5-7--------------------------7|
A|------------8--8-8-------------------------------|
E|-----------------------8--8-8-8-8-8/10-10-10-10--|

Guitar II
   e  s s s s e  s s s s e  s s s s e  s s s s
E|---------------------------------------------|
B|---------------------------------------------|
G|-7--7-7-7-7------------5--5-5-5-5-7--7-7-7-7-|
D|-7--7-7-7-7-3--3-3-3-3-5--5-5-5-5-7--7-7-7-7-|
A|-5--5-5-5-5-3--3-3-3-3-3--3-3-3-3-5--5-5-5-5-|
E|------------1--1-1-1-1-----------------------|
____________________________________________________________

   e  s s s s e  s s s s e s s s s s s s  s  s  s s 
E|-------------------------------------------------|
B|-------------------------------------------------|
G|-7--7-7------------------------------------------|
D|--------7-5--------5-7--------------------------7|
A|------------8--8-8-------------------------------|
E|-----------------------8--8-8-8-8-8/10-10-10-10--|

   e  s s s s e  s s s s e  s s s s e  s s s s
E|---------------------------------------------|
B|---------------------------------------------|
G|-7--7-7-7-7------------5--5-5-5-5-7--7-7-7-7-|
D|-7--7-7-7-7-3--3-3-3-3-5--5-5-5-5-7--7-7-7-7-|
A|-5--5-5-5-5-3--3-3-3-3-3--3-3-3-3-5--5-5-5-5-|
E|------------1--1-1-1-1-----------------------|
____________________________________________________________


   e  s s s s e  s s s s e  s s s s s s s s s
E|----------------------------------------------|
B|------------6--6-6-5--------------------------|
G|-7--7-7--------------7-5--5-5-5-5-5/7-7-7-7---|
D|--------7-5---------------------------------7-|
A|----------------------------------------------|
E|----------------------------------------------|

   e  s s s s e   s  s  s  s  e  s s s s e  s s s s
E|--------------------------------------------------|
B|--------------------------------------------------|
G|-7--7-7-7-7-10--10-10-10-10-5--5-5-5-5-7--7-7-7-7-|
D|-7--7-7-7-7-10--10-10-10-10-5--5-5-5-5-7--7-7-7-7-|
A|-5--5-5-5-5-8---8--8--8--8--3--3-3-3-3-5--5-5-5-5-|
E|--------------------------------------------------|
____________________________________________________________

Guitar I 
   e  s s s s e  s s s s e s s s s s s s  s  s  s s 
E|-------------------------------------------------|
B|-------------------------------------------------|
G|-7--7-7------------------------------------------|
D|--------7-5--------5-7--------------------------7|
A|------------8--8-8-------------------------------|
E|-----------------------8--8-8-8-8-8/10-10-10-10--|

Guitar II
   e  s s s s e  s s s s e  s s s s e  s s s s
E|---------------------------------------------|
B|---------------------------------------------|
G|-7--7-7-7-7------------5--5-5-5-5-7--7-7-7-7-|
D|-7--7-7-7-7-3--3-3-3-3-5--5-5-5-5-7--7-7-7-7-|
A|-5--5-5-5-5-3--3-3-3-3-3--3-3-3-3-5--5-5-5-5-|
E|------------1--1-1-1-1-----------------------|
Tap to rate this tab
 
# A B C D E F G H I J K L M N O P Q R S T U V W X Y Z