Song name
# A B C D E F G H I J K L M N O P Q R S T U V W X Y Z

Dropkick Murphys - Famous For Nothing tab

Capo 1

----------------------------------------------------------------------------------|
-------2-222-3-2----------------0h2-2222-2h3-333-33-2-0---0-000-2-0---------------|
-----2-----------4-2-0h2-2222---------------------------2-------------------------|
-2-4--------------------------4---------------------------------------------------|
----------------------------------------------------------------------------------|
----------------------------------------------------------------------------------|


----------------------------------------------------------------------------------|
-------2-222-3-2----------------0h2-2222-3-x22-x00-----x55-x33-x22-x00------------|
-----2-----------4-2-0h2-2222----------------------x22-----------------x22~-------|
-2-4--------------------------4---------------------------------------------------|
----------------------------------------------------------------------------------|
----------------------------------------------------------------------------------|
Tap to rate this tab
# A B C D E F G H I J K L M N O P Q R S T U V W X Y Z