Song name
# A B C D E F G H I J K L M N O P Q R S T U V W X Y Z

Dropkick Murphys - My Hero tab

-----------------------------------------------------------------------------
                             Dropkick Murphys - My Hero
-----------------------------------------------------------------------------
Tabbed by: RiseAgainst593

My cover of this song: http://youtu.be/lFEM2uPiyrI


Tuning: E-Standard

To get the right strumming, listen to the song!


Intro:

e|--3-----3-------------------------------------------------------------|
B|--3--0-----0----------------------------------------------------------|
G|--0------------2--0----0-------0--------------------------------------|
D|--0-----------------------0--2----0--2--0-----------------------------|
A|--x-------------------------------------------------------------------|
E|--3-------------------------------------------------------------------|

Main Riff: 

Guitar 1:

e|--3------3------3------3----------------------------------------------|
B|--3------3------3------3----------------------------------------------|
G|--0------0------0------0----------------------------------------------|
D|--0------2------x------0----------------------------------------------|
A|--x------2------3------x----------------------------------------------|
E|--3------0-------------3----------------------------------------------| 

Guitar 2:
   
e|----------------------------------------------------------------------|
B|--3--0--0-------------------------------3--0--0-----------------------|
G|-----------2--0--0-------0-------0--------------2--0--0------0-------0|
D|--------------------0-2----0-2-0-------------------------0-2---0-2-0--|
A|----------------------------------------------------------------------|
E|----------------------------------------------------------------------|

e|----------------------------------------------------------------------|
B|--3--0--0---5--0--0---8-0-7-0-5-0-3-0---------------------------------|
G|---------------------------------------2-0----------------------------|
D|--------------------------------------------2-0-----------------------|
A|----------------------------------------------------------------------|
E|----------------------------------------------------------------------|

e|----------------------------------------------------------------------|
B|--3--0--0-------------------------------------------------------------|
G|-----------2--0--0-------0-------0------------------------------------|
D|--------------------0-2----0-2-0--------------------------------------|
A|----------------------------------------------------------------------|
E|----------------------------------------------------------------------|

Vers:

e|--3----3----3----3----3----3----3----3--------------------------------|
B|--3----3----3----3----3----3----3----3--------------------------------|
G|--0----0----0----0----0----0----0----2--------------------------------|
D|--0----2----0----2----x----2----x----0--------------------------------|
A|--x----2----x----2----3----2----3-------------------------------------|
E|--3----0----3----0---------0------------------------------------------|

Chorus:

e|--3----3----3----3----3----3------------------------------------------|
B|--3----3----3----3----3----3------------------------------------------|
G|--0----0----0----0----2----0------------------------------------------|
D|--0----x----0----2----0----x------------------------------------------|
A|--x----3----x----2---------3------------------------------------------|
E|--3---------3----0----------------------------------------------------|

After 2.Chorus:

e|--3----3----3----3----------------------------------------------------|
B|--3----3----3----3----------------------------------------------------|
G|--0----0----0----2----------------------------------------------------|
D|--2----x----0----0----------------------------------------------------|
A|--2----3----x---------------------------------------------------------|
E|--0---------3---------------------------------------------------------|


Enjoy playing!
Tap to rate this tab
 
# A B C D E F G H I J K L M N O P Q R S T U V W X Y Z