Song name
# A B C D E F G H I J K L M N O P Q R S T U V W X Y Z

Dropkick Murphys - Rose Tattoo tab

      Q     E   E   Q    Q        Q    Q     Q    Q     
E||---------------------------|-------------------7----|
B||--10----10--10--10----8----|--10----8----10---------|
G||---------------------------|------------------------|
D||---------------------------|------------------------|
A||---------------------------|------------------------|
E||---------------------------|------------------------|
 
 
  E  E  E  E  Q     Q        Q     E   E   Q    Q        H.           Q     
--8--8--8--8--8----10----|--12----12--12--10----8----|--10------------8----|
-------------------------|---------------------------|---------------------|
-------------------------|---------------------------|---------------------|
-------------------------|---------------------------|---------------------|
-------------------------|---------------------------|---------------------|
-------------------------|---------------------------|---------------------|
 
 
   Q     Q     Q    Q       H        H            H        Q    Q     
--10----12----10----8----|--8--------7--------|----------------------|
-------------------------|--------------------|--10-------------8----|
-------------------------|--------------------|----------------------|
-------------------------|--------------------|----------------------|
-------------------------|--------------------|----------------------|
-------------------------|--------------------|----------------------|
 
 
   Q     E   E   Q    Q        Q    Q     Q    Q       E  E  E  E  Q     Q     
---------------------------|-------------------7----|--8--8--8--8--8----10----|
--10----10--10--10----8----|--10----8----10---------|-------------------------|
---------------------------|------------------------|-------------------------|
---------------------------|------------------------|-------------------------|
---------------------------|------------------------|-------------------------|
---------------------------|------------------------|-------------------------|
 
 
   Q     E   E   E   E  Q        Q     E   E   Q    Q     
--12----12--12--12--10--8----|--10----10--10--10----8----|
-----------------------------|---------------------------|
-----------------------------|---------------------------|
-----------------------------|---------------------------|
-----------------------------|---------------------------|
-----------------------------|---------------------------|
 
 
   Q     Q     Q    Q       H        H            W                 
--10----12----10----8----|--8--------7--------|--------------------|
-------------------------|--------------------|--10----------------|
-------------------------|--------------------|--------------------|
-------------------------|--------------------|--------------------|
-------------------------|--------------------|--------------------|
-------------------------|--------------------|--------------------|
Tap to rate this tab
# A B C D E F G H I J K L M N O P Q R S T U V W X Y Z