Song name
# A B C D E F G H I J K L M N O P Q R S T U V W X Y Z

Dropkick Murphys - This Is You Life tab

--------------------------------------------------------------------
--------------------------------------------------------------------
---7-7-7-7-------------7-7-7-7-7-------------7-7-7-7----------------
---5-5-5-5--7-7-7-7-7--7-7-7-7-7--5-5-5-5-5--5-5-5-5--7-7-7-7-7-7---
---5-5-5-5--7-7-7-7-7--5-5-5-5-5--5-5-5-5-5--5-5-5-5--7-7-7-7-7-7---
------------5-5-5-5-5-------------3-3-3-3-3-----------5-5-5-5-5-5---


--------------------------------------------------------------------
--------------------------------------------------------------------
--------------------------------------------------------------------
---5-5-5-5-5-5-5-5-5-5-5-5-5-5-5-5--7-7-7-7-7-7-7-7-7-7-7-7-7-7-7-7-
---5-5-5-5-5-5-5-5-5-5-5-5-5-5-5-5--7-7-7-7-7-7-7-7-7-7-7-7-7-7-7-7-
---3-3-3-3-3-3-3-3-3-3-3-3-3-3-3-3--5-5-5-5-5-5-5-5-5-5-5-5-5-5-5-5-x2

the rest is coming soon
Tap to rate this tab
# A B C D E F G H I J K L M N O P Q R S T U V W X Y Z