Song name
# A B C D E F G H I J K L M N O P Q R S T U V W X Y Z

Dropkick Murphys - Out Of Our Heads tab

Time Signature: 4/4

e|---5-5-5---5-5--5-7-7-7-10-5-|
h|-7-------7-------------------|
g|-----------------------------|
D|-----------------------------|
A|-----------------------------|
E|-----------------------------|

e|---5-5-5---7-5-------------|
h|-7-------7-----7---5-5-7-5-|
g|-----------------7---------|
D|---------------------------|
A|---------------------------|
E|---------------------------|
Tap to rate this tab
 
# A B C D E F G H I J K L M N O P Q R S T U V W X Y Z