Guitaretab - guitar tabs
Song name
# A B C D E F G H I J K L M N O P Q R S T U V W X Y Z

Dropkick Murphys - Good Rats tab

-------------------------------------------------------------------------------
			     GOOD RATS - Dropkick Murphys
-------------------------------------------------------------------------------
Tabbed by: Andrew Jones
Email: snbritishfreak@hotmail.com

Tuning: Standard

Intro
e|--3-----3-----3--3--3--3-------|
B|--3-----3-----3--3--3--3-------|
G|--0-----0-----0--0--0--0-------|
D|--0-----0-----0--0--0--0-------|
A|--2-----2-----2--2--2--2-------|
E|--3-----3-----3--3--3--3-------|

e|---------------0-0-0---0-0------------------0-0-0---0-0-|
B|-1-1-1---1-1---1-1-1---1-1---0-0-0---0-0----1-1-1---1-1-|
G|-2-2-2---2-2---0-0-0---0-0---0-0-0---0-0----0-0-0---0-0-|
D|-3-3-3---3-3---2-2-2---2-2---0-0-0---0-0----2-2-2---2-2-|x4
A|---------------3-3-3---3-3---2-2-2---2-2----3-3-3---3-3-|
E|-----------------------------3-3-3---3-3----------------|

VERSE
      F       C        G        C
e|----------------------------------------|
B|-----1--------1--------0--------1-------|
G|---2-2-2------0--------0--------0-------|
D|-3------3----2-2--------------2---2-----| x 4
A|-----------3----------2--2---3----------|
E|-------------------3--------------------|


e|--3-----3-----3--3--3--3-------|
B|--3-----3-----3--3--3--3-------|
G|--0-----0-----0--0--0--0-------|
D|--0-----0-----0--0--0--0-------|
A|--2-----2-----2--2--2--2-------|
E|--3-----3-----3--3--3--3-------|

      F       C        G        C
e|----------------------------------------|
B|-----1--------1--------0--------1-------|
G|---2-2-2------0--------0--------0-------|
D|-3------3----2-2--------------2---2-----| x 4
A|-----------3----------2--2---3----------|
E|-------------------3--------------------|

PRE CHORUS
e|--3-----3-----3--3--3--3-------|
B|--3-----3-----3--3--3--3-------|
G|--0-----0-----0--0--0--0-------|
D|--0-----0-----0--0--0--0-------|
A|--2-----2-----2--2--2--2-------|
E|--3-----3-----3--3--3--3-------|

CHORUS
e|-----------------------0-0-0-0-0-0-0-0-0-0-0-0-|
B|-1-1-1-1-1-0-0-0-0-0-0-1-1-1-1-1-1-1-1-1-1-1-1-|
G|-2-2-2-2-2-0-0-0-0-0-0-0-0-0-0-0-0-0-0-0-0-0-0-|
D|-3-3-3-3-3-0-0-0-0-0-0-2-2-2-2-2-2-2-2-2-2-2-2-|x4
A|-----------2-2-2-2-2-2-3-3-3-3-3-3-3-3-3-3-3-3-|
E|-----------3-3-3-3-3-3-------------------------|
[ Tab from: http://www.guitaretab.com/d/dropkick-murphys/45907.html ]
PRE VERSE
e|--3-----3-----3--3--3--3-------|
B|--3-----3-----3--3--3--3-------|
G|--0-----0-----0--0--0--0-------|
D|--0-----0-----0--0--0--0-------|
A|--2-----2-----2--2--2--2-------|
E|--3-----3-----3--3--3--3-------|

VERSE
      F       C        G        C
e|----------------------------------------|
B|-----1--------1--------0--------1-------|
G|---2-2-2------0--------0--------0-------|
D|-3------3----2-2--------------2---2-----| x 4
A|-----------3----------2--2---3----------|
E|-------------------3--------------------|

PRE CHORUS
e|--3-----3-----3--3--3--3-------|
B|--3-----3-----3--3--3--3-------|
G|--0-----0-----0--0--0--0-------|
D|--0-----0-----0--0--0--0-------|
A|--2-----2-----2--2--2--2-------|
E|--3-----3-----3--3--3--3-------|

CHORUS
e|-----------------------0-0-0-0-0-0-0-0-0-0-0-0-|
B|-1-1-1-1-1-0-0-0-0-0-0-1-1-1-1-1-1-1-1-1-1-1-1-|
G|-2-2-2-2-2-0-0-0-0-0-0-0-0-0-0-0-0-0-0-0-0-0-0-|
D|-3-3-3-3-3-0-0-0-0-0-0-2-2-2-2-2-2-2-2-2-2-2-2-|x4
A|-----------2-2-2-2-2-2-3-3-3-3-3-3-3-3-3-3-3-3-|
E|-----------3-3-3-3-3-3-------------------------|

BRIDGE

e|---------------0-0-0---0-0------------------0-0-0---0-0-|
B|-1-1-1---1-1---1-1-1---1-1---0-0-0---0-0----1-1-1---1-1-|
G|-2-2-2---2-2---0-0-0---0-0---0-0-0---0-0----0-0-0---0-0-|
D|-3-3-3---3-3---2-2-2---2-2---0-0-0---0-0----2-2-2---2-2-|x4
A|---------------3-3-3---3-3---2-2-2---2-2----3-3-3---3-3-|
E|-----------------------------3-3-3---3-3----------------|


PRE CHORUS
e|--3-----3-----3--3--3--3-------|
B|--3-----3-----3--3--3--3-------|
G|--0-----0-----0--0--0--0-------|
D|--0-----0-----0--0--0--0-------|
A|--2-----2-----2--2--2--2-------|
E|--3-----3-----3--3--3--3-------|

*BASS, DRUMS AND VOCALS ONLY*

e|-----------|
B|-1---------|
G|--0--------|
D|----2------|
A|------3----|
E|-----------|

PRE CHORUS
e|--3-----3-----3--3--3--3-------|
B|--3-----3-----3--3--3--3-------|
G|--0-----0-----0--0--0--0-------|
D|--0-----0-----0--0--0--0-------|
A|--2-----2-----2--2--2--2-------|
E|--3-----3-----3--3--3--3-------|

CHORUS
e|-----------------------0-0-0-0-0-0-0-0-0-0-0-0-|
B|-1-1-1-1-1-0-0-0-0-0-0-1-1-1-1-1-1-1-1-1-1-1-1-|
G|-2-2-2-2-2-0-0-0-0-0-0-0-0-0-0-0-0-0-0-0-0-0-0-|
D|-3-3-3-3-3-0-0-0-0-0-0-2-2-2-2-2-2-2-2-2-2-2-2-|x8
A|-----------2-2-2-2-2-2-3-3-3-3-3-3-3-3-3-3-3-3-|
E|-----------3-3-3-3-3-3-------------------------|


OUTRO
e|--3-----3-----3--3--3--3------0-----|
B|--3-----3-----3--3--3--3------1-----|
G|--0-----0-----0--0--0--0------0-----|
D|--0-----0-----0--0--0--0------2-----|
A|--2-----2-----2--2--2--2------3-----|
E|--3-----3-----3--3--3--3------------|



And there you have it. Enjoy, rate and comment!
Related for Good Rats tab
Advertisement will be closed in 10 seconds