Song name
# A B C D E F G H I J K L M N O P Q R S T U V W X Y Z

Dropkick Murphys - Skinhead On The Mbta tab

-------------------------------------------------------------------------------
			     SKINHEAD ON THE MBTA - Dropkick Murphys
-------------------------------------------------------------------------------
Tabbed by: Fred Mulheron
Email: Timetogo530@aol.com

Tuning: Standard

Intro:
e|----------------------------------------|
B|----------------------------------------|
G|----------------------------------------|
D|----------------------------------------|
A|------4--7--4--7--5--4------------------|
E|---5--------------------7--5------------|

Verse(Palm Muted)/Chorus
e|---------------------------------------------------------------------------|
B|---------------------------------------------------------------------------|
G|------------------7-7-7-7-7-7-7-7-----------------9-9-9-9-9-9-9-9----------|
D|--7-7-7-7-7-7-7-7-7-7-7-7-7-7-7-7-7-7-7-7-7-7-7-7-9-9-9-9-9-9-9-9----------|
A|--7-7-7-7-7-7-7-7-5-5-5-5-5-5-5-5-7-7-7-7-7-7-7-7-7-7-7-7-7-7-7-7----------|
E|--5-5-5-5-5-5-5-5-----------------5-5-5-5-5-5-5-5--------------------------|

e|---------------------------------------------------------------|
B|---------------------------------------------------------------|
G|------------------7-7-7-7-7-7-7-7-------9-9-9------------------|
D|--7-7-7-7-7-7-7-7-7-7-7-7-7-7-7-7-7-7-7-9-9-9-7-7-7-7-7-7-7-7--|
A|--7-7-7-7-7-7-7-7-5-5-5-5-5-5-5-5-7-7-7-7-7-7-7-7-7-7-7-7-7-7--|
E|--5-5-5-5-5-5-5-5-----------------5-5-5-------5-5-5-5-5-5-5-5--|

Solo:
e|----------5---------------------------5------------------------------------------------|
B|--5---------8-6---5-----------5---------8-6---5----------------------------------------|
G|----7-5---------7---7-5---------7-5---------7---7-5------------------------------------|
D|--------7---------------7-7b5-------7---------------7-5-7------------------------------|
A|---------------------------------------------------------------------------------------|
E|---------------------------------------------------------------------------------------|
Tap to rate this tab
 
# A B C D E F G H I J K L M N O P Q R S T U V W X Y Z