Song name
# A B C D E F G H I J K L M N O P Q R S T U V W X Y Z

Dropkick Murphys - Road Of The Righteous tab

ARTIST:DROPKICK MURPHY'S
SONG:ROAD OF THE RIGHTEOUS
ALBUM:DO OR DIE!
TAB WRITTEN BY:NATHAN 

INTRO

E|------------------|
B|----------5-5-5-5-|
G|--5-5-5-5-5-5-5-5-|
D|--5-5-5-5-3-3-3-3-|
A|--3-3-3-3---------|
E|------------------|
 PM . . . . . . . .

VERSE
E|--------------------------------------------------|
B|--------------------------------------------------|
G|--------5-----------5-----------5-----------7-----|
D|--5-----5-----5-----5-----5-----5-----7-----7-----|
A|--5-----3-----5-----3-----5-----3-----7-----5-----|
E|--3-----------3-----------3-----------5-----------|
               
CHORUS
E|------------------------------------------------------|
B|------------------------------------------------------|   
G|--5----------7--------------5----------7--------------|
D|--5----------7-------5-5-5--5----------7-------5-5-5--|
A|--3----------5-------5-5-5--3----------5-------5-5-5--|
E|---------------------3-3-3---------------------3-3-3--|

E|--------------------------------------------------|
B|--------------------------------------------------|
G|--5----------7--------------5----------7----------|
D|--5----------7-------5-5-5--5----------7----------|
A|--3----------5-------5-5-5--3----------5----------|
E|---------------------3-3-3------------------------|

After the second chourus the verse changes a little bit

E|----------------------------------------------------|
B|----------------------------------------------------|
G|----------7---9-----------7---9-----------7---9-----|
D|----7-----5---7-----7-----5---7-----7-----5---7---3-|
A|--3/5-------------3/5-------------3/5-------------3-|
E|--------------------------------------------------1-|

PAUSE...

Back to normal verse

OUTRO

E|-------------------------------------|
B|-------------------------------------|
G|--5--5--7--7-------------------------|
D|--5--5--7--7--5----------------------|
A|--3--3--5--5--5-LET RINGGGGGGGGGGGGG-|
E|--------------3----------------------|


INTRO:REPEAT 6x
VERSE:REPEAT 12X
CHORUS:1X
VERSE:REPEAT 12X
CHOURUS:1X
VERSE 2:1X
OUTRO:.......................................................................

WELL THATS IT...HOPE YOU LIKED IT










Tap to rate this tab
 
# A B C D E F G H I J K L M N O P Q R S T U V W X Y Z