Guitaretab - guitar tabs
Song name
# A B C D E F G H I J K L M N O P Q R S T U V W X Y Z

Dropkick Murphys - Noble tab

Drokick Murphy's
album: Do or Die

Tuning is Eb,Ab,Db,Gb,Bb,eb 

Itís a really easy tab to play, so its not a difficult one.

intro - guitar 1
|---------------------------------|
|---------------------------------|
|-8-8-8---------------------------|
|-8-8-8---5-5-5---101010--8-8-8---|
|-6-6-6---5-5-5---101010--8-8-8---|
|---------3-3-3---8-8-8---6-6-6---|

guitar 2
|---------------------------------|
|---------------------------------|
|-8~------------------------------|
|-8~------------------------------|
|-6~------------------------------|
|---------------------------------|


verse 1
guitar 1
|---------------------------------|
|---------------------------------|
|-8-8-8---------------------------|
|-8-8-8---5-5-5---101010--8-8-8---|
|-6-6-6---5-5-5---101010--8-8-8---|
|---------3-3-3---8-8-8---6-6-6---|

guitar 2                              
|---------------------------------|
|---------------------------------|
|-66666666666666666-999999-888888-|
|---------------------------------|
|---------------------------------|
|---------------------------------|

[ Tab from: http://www.guitaretab.com/d/dropkick-murphys/53611.html ]
verse 2
both guitars
|---------------------------------|
|---------------------------------|
|-8~------------------------------|
|-8~------------------------------|
|-6~------------------------------|
|---------------------------------|


then they play this
|---------------------------------|
|---------------------------------|
|-8-8-8---------------------------|
|-8-8-8---5-5-5---101010--8-8-8---|
|-6-6-6---5-5-5---101010--8-8-8---|
|---------3-3-3---8-8-8---6-6-6---|

|---------------------------|
|---------------------------|
|---------------------------|
|-5-5-5-5-5-5-5-5-4~--4~--4-|
|-5-5-5-5-5-5-5-5-4~--4~--4-|
|-3-3-3-3-3-3-3-3-2~--2~--2-|
  . . . . . . . . (mute)


chorus
both guitars
|---------------------------------|
|---------------------------------|
|-8~------------------------------|
|-8~-----10~-----8~------8--8--8--|
|-6~-----10~-----8~------8--8--8--|
|--------8~------6~------6--6--6--|



verse 2
chorus
verse 1
no guitars only base
verse 2(only the muted piece)
chorus
The end

Well this was my tab I hope you like, and enjoy it. 
Good luck

Tias
Related for Noble tab