Song name
# A B C D E F G H I J K L M N O P Q R S T U V W X Y Z

Dropkick Murphys - Kiss Me Im Shitfaced tab

-------------------------------------------------------------------------------
			    KISS ME I'M SHITFACED - Dropkick Murphys
-------------------------------------------------------------------------------
Tabbed by:Pakistanieagle77


Tuning: Full Step Down (DGCFAd)

Intro Electric and Acoustic

e|------------------------------------------------------------------------------------|
B|-----3h5-3-1---1-----1--------------------------------------------------------------|
G|-----0-0--0-0---0h2-0---------------------------------------------------------------|
D|-----------------------------2------------------------------------------------------|
A|---------------------------------3--------------------------------------------------|
E|------------------------------------------------------------------------------------|

or a simplified version in DGCFAd
e|----------------------------------------------------------------------------------|
B|------3h5-3-1---------------------------------------------------------------------|
G|------------------0h2-0-----------------------------------------------------------|
D|----------------------------2-----------------------------------------------------|
A|--------------------------------3-------------------------------------------------|
E|----------------------------------------------------------------------------------|

In standard
e|----------------------------------------------------------------------------------|
B|----------------------------------------------------------------------------------|
G|----5h7-5--3----------------------------------------------------------------------|
D|------------------3h5-3-0---------------------------------------------------------|
A|-------------------------------1--------------------------------------------------|
E|----------------------------------------------------------------------------------|

Thats all, if you're playing it in DGCFAd play the song in the key of C using C, F, and 
chords mostly and Em for the end of the verses and if playing in standard check the 
version 2


| /  slide up
| \  slide down
| h  hammer-on
| p  pull-off
| ~  vibrato
| +  harmonic
| x  Mute note
===============================================================================
Tap to rate this tab
# A B C D E F G H I J K L M N O P Q R S T U V W X Y Z