Song name
# A B C D E F G H I J K L M N O P Q R S T U V W X Y Z

Dropkick Murphys - Boston Ashphalt tab

Song:   Bostan Asphalt
Album:  The Gangs All Here
Band :  Dropkick Murphys
E-mail: Greenday_rhcp2002@yahoo.co.uk
Greenday2003
Tuning: Standard

Intro
|------------------------|
|------------------------|
|-5555-----------55------|
|-5555-3333-3333-55-5555-|
|-3333-3333-3333-33-5555-|
|------1111-1111----3333-|
Verse
|---------------------------------------------|
|---------------------------------------------|
|-5555------5555-------5555-----------55------|
|-5555-3333-5555-5555--5555-3333-3333-55-5555-|
|-3333-3333-3333-5555--3333-3333-3333-33-5555-|
|------1111------3333-------1111-1111----3333-|

Chorus
|-------------------|
|-------------------|
|-------------------|
|-33333333-55555555-|
|-33333333-55555555-|
|-11111111-33333333-|

During Bass Solo(B-part)
|-----------------------|
|-----------------------|
|---5----55----5----5---|
|-3-5-5--55----5--3-5-5-|
|-3-3-5--33----3--3-3-5-|
|-1---3-----------1---3-|

End
|-------|
|-------|
|----5~-|
|-3~-5~-|
|-3~-3~-|
|-1~----|


Intro  x2
Verse  x2
Chorus x3
Intro  x2
Verse  x2
Chorus x3
Intro  x2
B-part x1
Chorus x3
Intro  x4
End    x1

Listen to the track for timing
Tap to rate this tab
 
# A B C D E F G H I J K L M N O P Q R S T U V W X Y Z