Guitaretab - guitar tabs
Song name
# A B C D E F G H I J K L M N O P Q R S T U V W X Y Z

Dropkick Murphys - Shipping Up To Boston tab

   dropkick murphys shipping of to boston
   rythem 
  e|---------------------------------------------------------------------|
  b|---------------------------------------------------------------------|
  g|---------------------------------------------------------------------|
  d|22 22 22 22 22 22 22 22 22 22 22---12--12\--7\-----------------------| 
  a|22-22-22-22-22-22-22-22-22-22-22---12--12\--7\-----------------------|
  e|00-00-00-00-00-00-00-00-00-00-00---10--12\--5\-----------------------|
    ^                                      ^    ^
low/|\                              high  /|\  /|\
    |                                      |    |
start song on third chord  after this it does three low chords then the high ones              
 
[ Tab from: http://www.guitaretab.com/d/dropkick-murphys/75515.html ]
  e---------------------7-5---5------------------------------------------|
  g-----------7-8-7---------8---8-7-8-7--3-5-----------------------------|
  b--9-7-9-7-9------9-7--------------------------------------------------|
  d----------------------------------------------------------------------|
  a----------------------------------------------------------------------|
  e ---------------------------------------------------------------------|
                         
  e---------------------|----------------7-------------------------------|
  g------------7-8-7----|------------7-8---------------------------------|
  b--9-7-9-7-9-------9-7|--9-7-9-7-9-------------------------------------|
  d---------------------|------------------------------------------------|
  a---------------------|------------------------------------------------|
  e---------------------|------------------------------------------------|
               
  e---------------------7-5---5------------------------------------------|
  g-----------7-8-7---------8---8-7-8-7--3-5-----------------------------|
  b--9-7-9-7-9------9-7--------------------------------------------------|
  d----------------------------------------------------------------------|
  a----------------------------------------------------------------------|
  e ---------------------------------------------------------------------|

  e-------------------------------|----------------------14--------------|
  g-----------------14-15-14------|---------------14-15------------------|
  b--16-14-16-14-16----------16-14|-16-14-16-14-16-----------------------|
  d-------------------------------|--------------------------------------|
  a-------------------------------|--------------------------------------|
  e-------------------------------|--------------------------------------|
  
  e---------------------------14-12----12--------------------------------|
  g-----------------14-15-14--------15----15-14-15-14-10-12--------------|
  b--16-14-16-14-16------------------------------------------------------|
  d----------------------------------------------------------------------|
  a----------------------------------------------------------------------|
  e----------------------------------------------------------------------|
Related for Shipping Up To Boston tab
Shipping Up To Boston chords by Dropkick Murphys