Song name
# A B C D E F G H I J K L M N O P Q R S T U V W X Y Z

Dropkick Murphys - We Got The Power tab

We got the power by dropkick murphys, this is a cool song and its catchy.


intro:                     overlay:
E--------------------|     E----------5-6-7-8|
B--------------------|     B-----------------|
G--------------------|     G-----------------|
D-4-4-4-4-4-4-4-4-4-4|     D-----------------|
A-2-2-2-2-2-2-2-2-2-2|     A-----------------|
E-o-o-o-o-o-o-o-o-o-o|     E-----------------|

Overlay 2:
E---------|
B---------|
G-2-------|
D--o------|
A---4-4-2~|
E---------|


pre chorus:

E--------------------|     
B--------------------|     
G--------------------|     
D-4-4-4-4-4-4-4-4-4-4|     
A-2-2-2-2-2-2-2-2-2-2|     
E-o-o-o-o-o-o-o-o-o-o|


chorus:
E-----------------|           post chorus:
B-----------------|            E----------5-6-7-8|
G-----------------|            B-----------------|
Do-4-4-4-4-6-6-6-6|            G-----------------|
Ao-2-2-2-2-4-4-4-4|            D-----------------|
E-----------------|            A-----------------|
                               E-----------------|
Tap to rate this tab
 
# A B C D E F G H I J K L M N O P Q R S T U V W X Y Z