Song name
# A B C D E F G H I J K L M N O P Q R S T U V W X Y Z

Dropkick Murphys - State Of Massachusetts tab

Intro/Pre Verse/Bridge/Outro
Guitar 1(banjo)

-------------------------------------------------------|
-------------------------------------------------------|
-777-7-2-0-------0-2-----------------------------------|
------------3-33------------------------------------x2-|
---------------------3-33-0-3-5555---------------------|
-------------------------------------------------------|


-----------------------------------------------------|
-----------6-66-5------------------------------------|
-7-77-2-0---------7--5555---5--7777------------------|
--------------------------7--------------------------|
-----------------------------------------------------|
-----------------------------------------------------|


--------------5----------------------|
------5---6-------8---6---7----------|   (cant make out the low picking
--7----------------------------------|    between each high note)
-------------------------------------|
-------------------------------------|
-------------------------------------|


-------------------------------------------------------|
-------------------------------------------------------|
-------------------------------------------------------|
-7-----7-----7----7-----7------------------------------|
-7(x8)-7-----7----7-----7------------------------------|
-5-----5-----5----5-----5------------------------------|


Intro/Pre chorusx2/Post chorus/Outro (play this after 2nd time) 
Guitar 2                             (only after pre chorus)
------------------------------|-------------------------|
------------------------------|-------------------------|
-7------10------5------7------|-------------------------|
-7(x5)--10(x5)--5(x5)--7(x5)--|---7---------------------|
-5------8-------3------5------|---7---------------------|
------------------------------|---5---------------------|

Verse 1&2

-------------------------------------------------------|
-------------------------------------------------------|
-7~~~---10~~~---5~~~--7~~~-----------------------------|
-7~~~---10~~~---5~~~--7~~~-----------------------------|
-5~~~---8~~~~---3~~~--5~~~-----------------------------|
-------------------------------------------------------|


Chorus

-------------------------------------------------------|
-------------------------------------------------------|
--7-7-7---5---10---------------10----------------------|
--7-7-7---5---10(x8)---8-------10(x4)---10-------------|
--5-5-5---3---8--------8(x4)---8--------10(x8)---------|
-----------------------6----------------8--------------|

Intro to Bridge
Guitar 2
-------------------------------------------------------|
-------------------------------------------------------|
-3------5------7------10------9------12------17--------|
-x(x4)--x(x4)--x(x4)--x-(x4)--x(x4)--x-(x4)--x-(x8)----|
-1------3------5------8-------7------10------15--------|
-------------------------------------------------------|



Bridge (this is guitar 2 in the backround n im not positive on this part)

-------------------------------------------------------|
----6-----8---------------6----------------------------|
----7-----10------5-------7----------------------------|
----7-----10------5-------7----------------------------|
-5-----8-------3-------5-------------------------------|
-------------------------------------------------------|


End On

-------------------------------------------------------|
-------------------------------------------------------|
-xxx--7\-----------------------------------------------|
-xxx--7\-----------------------------------------------|
-xxx--5\-----------------------------------------------|
-------------------------------------------------------|



Order:

Intro (guitar 1) x1
Intro (guitar 1&2) x2
Verse 1 x2
Pre Chorus (guitar 1&2) x2
Chorus x3
Post Chorus (guitar 1&2) x2
Verse 2 x2
Pre Chorus (guitar 1&2) x2
Intro to Bridge x2
Chorus x3
Intro To Bridge x2
Chorus x1
Bridge x3
    Bridge (guitar 2 after first set) x4
           (then do guitar 2 pre chorus but mute a little b4 strummin) x4
Chorus (1st time pause on first chord) x3
Outro (guitar 1) x1
Outro (guitar 2) x2
Ending

                      This is my first tab, rate it
Tap to rate this tab
# A B C D E F G H I J K L M N O P Q R S T U V W X Y Z