Song name
# A B C D E F G H I J K L M N O P Q R S T U V W X Y Z

Dropline - Fly Away From Here tab

#----------------------------------PLEASE NOTE---------------------------------#
#This file is the author's own work and represents their interpretation of the #
#song. You may only use this file for private study, scholarship, or research. #
#------------------------------------------------------------------------------##
#

From: David King 

Dropline
"Fly Away From Here"
You Are Here
Copyright 2002 
Transcribed by David "NF" King 
This is all my own work
-------------------------------------------------
 Hey, I was looking around on the net to see if anyone had this song tabbed.  
It's such a great song and wanted to learn it.  I couldn't find it anywhere
so said "well I'll do it myself". This is the first song I ever tabbed out
so bare with me.  I just have the basics but at least you can get the jist
of the song.  There is one part little part I didn't bother to figure out
but it's no biggie.  So here it goes  


(this is my updated version containing the Riff in the song just after the chorus)  
  
ANY CORRECTIONS OR COMMENTS WOULD BE APPRECIATED.
Thank you and have fun.
 
 
 
TAB
---
 
(verse):
    
 
   E|--------------------------|-------------------------|
   B|--------------------------|-------------------------|
   G|--5--5-5-5-5-5-/-8-8-8----|-------------------------|
   D|--5--5-5-5-5-5-/-8-8-8----|-3--3-3-3-3-3-/-6-6-6----|
   A|--3--3-3-3-3-3-/-6-6-6----|-3--3-3-3-3-3-/-6-6-6----|
   E|--------------------------|-1--1-1-1-1-1-/-4-4-4----|
 
  repeat
 
(Chorus): 

 
   E|--------------------------|-------------------------|
   B|--------------------------|-------------------------|
   G|--8--8-8-8-8-8-/-10-10-10-|-------------------------|
   D|--8--8-8-8-8-8-/-10-10-10-|-6--6--6--6--6--6--6--6--|
   A|--6--6-6-6-6-6-/--8--8--8-|-6--6--6--6--6--6--6--6--|
   E|--------------------------|-4--4--4--4--4--4--4--4--|

    That's the basic song, listen to the song and follow along, it's not rocket 
science!!

(little riff):

   E|------------------------------
   B|------------------------------
   G|-8\---5~---7/---10~---8\--5~--
   D|------------------------------    
   A|------------------------------    
   E|------------------------------    
Tap to rate this tab
# A B C D E F G H I J K L M N O P Q R S T U V W X Y Z