Guitaretab - guitar tabs
Song name
# A B C D E F G H I J K L M N O P Q R S T U V W X Y Z

Dropout Year - Biggest Fan tab

-------------------------------------------------------------------------------
		      Biggest Fan (Acoustic) - Dropout Year
-------------------------------------------------------------------------------
Tabbed by:Alex Price
UG Profile: apguitarguy40

Nobody has tabbed this song so i figured id give it a shot. I know all but two or so 
names are incorrect, but i didn't want to take the time to look them up. Post a comment at 
bottom or on my profile if you have any corrections or suggestions.
Tuning:Standard

All Strings Played Unless Marked
 C     C/E     D/C     G     A     G2     G2m     E
e|-------------------------------------------------------------------------|
B|-1----1-------3------3-----x---------------------------------------------|
G|---------------------------2-----4---------------------------------------|
D|-2------------4------------2-----5-------4------2------------------------|
A|-3----2-------5------2-----------5-------5------2------------------------|
E|---------------------3-----------3-------2-------------------------------|

(Verse):
C
walks on the beach
          G         D/C        C
as you bury your heart in the sand,
       G       D/C         C
and bury our love in the past.
             C/E      A     C/E   C
ill always be your biggest fan.
                     G          D/C
dying to live for a hint of attention.
C
nights in his bed
           G          D/C   C
you neglected to mention
C         C/E    A   C/E    C
your boy back home

(Chorus):

  D/C     G2       G2m
and i wanted to tell you
               E  G2m  G2   G2m
im letting you go now.
C            C/E           A     C/E   C   D/C
gave up on hope with this song and a note.
G2       G2m                 E
always thought wed make it somehow.
C         C/E             A          C/E    C    D/C
gave up on hope with this letter that you wrote

(Verse):
[ Tab from: http://www.guitaretab.com/d/dropout-year/103876.html ]
C                       G            D/C
gave up on us for just one night of passion,
C                       G            D/C
loving and lusting while everyones laughing.
C               C/E      A   C/E   C
and ill always be your biggest fan.
C                       G            D/C
do you regret nights on the swing sets,
C                       G            D/C
nights on the beach where we watched the sunset?
C              C/E       A   C/E   C        D/C
and ill always be there as your friend

(Chorus):
    G2             G2m
and i wanted to tell you
                 E
im letting you go now.
C          C/E             A  C/E   C   D/C
gave up on hope with this song and a note.
G2         G2m                E
always thought wed make it somehow.
C          C/E             A  C/E   C   D/C
gave up on hope with this letter that you wrote

(Interlude/Solo):
(Play the last two lines in the chorus)

     G2       G2m
and i wanted to tell you
               E  G2m  G2   G2m
im letting you go now.
C            C/E           A     C/E   C   D/C
gave up on hope with this song and a note.
G2m        G2m               E
always thought wed make it somehow.
C         C/E             A          C/E    C
gave up on hope with this letter that you wrote
(Riff 1)
a song and a note

(Riff 1)
e|-----------------------------------------3-------------------------------|
B|------2---------4---------5---------3----3-------------------------------|
G|----2---------4---------5---------2--------------------------------------|
D|--0---------2---------3---------0----------------------------------------|
A|-----------------------------------------2-------------------------------|
E|-----------------------------------------3-------------------------------|
  A Song     And      a   Note..........


===============================================================================
Related for Biggest Fan tab