Song name
# A B C D E F G H I J K L M N O P Q R S T U V W X Y Z

Dropout Year - Change Today tab

Guitar part.
Guitar 1:
----------------------------------------------------------------------|
----------------------------------------------------------------------|
--4-4-4-4-4-4-4-4-----------------4-4-4-4-4-4-4-4---------------------|
--4-4-4-4-4-4-4-4-2-2-2-2-2-2-2-2-4-4-4-4-4-4-4-4-4-4-6-6-2-2--X--X---|x2
--2-2-2-2-2-2-2-2-2-2-2-2-2-2-2-2-2-2-2-2-2-2-2-2-4-4-6-6-2-2--X--X---|
------------------0-0-0-0-0-0-0-0-----------------2-2-4-4-0-0--X--X---|

Guitar 2:
------------------------------------------------------------------------14---|
-12-11----12-11----14----12-11---12-11----14-h16-12-11---12-11----14---------|
-------11-------11----11-------11------11--------------11------11----11------|x2
-----------------------------------------------------------------------------|
-----------------------------------------------------------------------------|
-----------------------------------------------------------------------------|
Tap to rate this tab
# A B C D E F G H I J K L M N O P Q R S T U V W X Y Z