Song name
# A B C D E F G H I J K L M N O P Q R S T U V W X Y Z

Dropout Year - Tire Swing Romance Acoustic tab

----------------------------------------------------------------------------
			  Tire Swing Romance - Dropout Year
----------------------------------------------------------------------------

Tabbed by: Zac Westdyke
Email: zacwestmx@yahoo.com

Tuning: Standard

All the tabs for this pretty much suck. So I'm just going to make a tab for 
it that is actually right.  I don't know chord names so I'm sorry but you're
gonna have to listen to the song for chord changes. Thanks broskiess.
Oh and if you have a question or comment or whatever, just leave a comment.

INTRO:

Guitar 1
e|------0-----0---------0-----0-7------------------------------------------|
B|----7-----7-----7---7-----7----------------------------------------------|
G|-------------------------------------------------------------------------|
D|--9-----9-----9---9-----9------------------------------------------------|
A|-------------------------------------------------------------------------|
E|-------------------------------------------------------------------------|

Guitar 2
e|----0----------0---------------------------------------------------------|
B|----0----------0---------------------------------------------------------|
G|----9----------2---------------------------------------------------------|
D|----9----------2---------------------------------------------------------|
A|----7----------0---------------------------------------------------------|
E|----0----------0---------------------------------------------------------|

On the Intro, Guitar 2 changes chords after you play Guitar 1's riff twice.


VERSE:
         Do you remember..     Do you remember..
e|----0~---------------------0~--------------------------------------------|
B|----0~---------------------0~--------------------------------------------|
G|----9~---------------------9~--------------------------------------------|
D|----9~---------------------9~--------------------------------------------|
A|----7~---------------------7~--------------------------------------------|
E|----0~---------------------0~--------------------------------------------|

         I remember...     A summer fling...
e|---0~-----------------------0~-------------------------------------------|
B|---0~-----------------------0~-------------------------------------------|
G|---2~-----------------------2~-------------------------------------------|
D|---2~-----------------------2~-------------------------------------------|
A|---0~-----------------------0~-------------------------------------------|
E|---0~-----------------------0~-------------------------------------------|
*Repeat for all verses*


CHORUS:

e|----0-------0-------0-------0--------------------------------------------|
B|----0-------0-------0-------0--------------------------------------------|
G|----9-------2-------9-------2--------------------------------------------|
D|----9-------2-------9-------2--------------------------------------------|
A|----7-------0-------7-------0--------------------------------------------|
E|----0-------0-------0-------0--------------------------------------------|

VERSE
CHORUS

BRIDGE/OUTRO:
       Fell asleep with the girl next door
e|--0----------------------------------------------------------------------|
B|--0----------------------------------------------------------------------|
G|--6----------------------------------------------------------------------|
D|--6----------------------------------------------------------------------|
A|--4----------------------------------------------------------------------|
E|--0----------------------------------------------------------------------|
       We woke up and she wanted more
e|--0----------------------------------------------------------------------|
B|--0----------------------------------------------------------------------|
G|--4----------------------------------------------------------------------|
D|--4----------------------------------------------------------------------|
A|--2----------------------------------------------------------------------|
E|--0----------------------------------------------------------------------|
       Fell in love but we weren't so sure
e|--0----------------------------------------------------------------------|
B|--0----------------------------------------------------------------------|
G|--2----------------------------------------------------------------------|
D|--2----------------------------------------------------------------------|
A|--0----------------------------------------------------------------------|
E|--0----------------------------------------------------------------------|
       So quote the both of us no more
e|-------0------------------0----------------------------------------------|
B|-------0------------------0----------------------------------------------|
G|-------9------------------9----------------------------------------------|
D|-------9------------------9----------------------------------------------|
A|-------7------------------6----------------------------------------------|
E|-------0------------------0----------------------------------------------|

CHORUS (First time with minimal strumming, second time played normal)
BRIDGE/OUTRO

And that's it. this tab is pretty much 100% accurate.  Thanks for taking the
time to check it out, comment and rate sonn


| /  slide up
| \  slide down
| h  hammer-on
| p  pull-off
| ~  let ring
| +  harmonic
| x  Mute note
============================================================================
Tap to rate this tab
# A B C D E F G H I J K L M N O P Q R S T U V W X Y Z