Song name
# A B C D E F G H I J K L M N O P Q R S T U V W X Y Z

Dropout Year - Biggest Fan tab

----------------------------------------------------------------------------
                   "Biggest Fan" by Dropout Year
----------------------------------------------------------------------------



Intro

E|-----------------------------------------------------------------------|
B|-----------------------------------------------------------------------|
G|---0-0--5-5--0--0---0-0--0---0---0---0---0---0---0---0-----------------|
D|---0-0--0-0--0--0---0-0--0---0---0---0---0---0---0---0-----------------|  
A|---5-5--5-5--12-12--5-5--12--12--12--12--14--14--10--10----------------|
E|---3-3--3-3--10-10--3-3--10--10--12--12--12--12--12--12----------------|

E|-----------------------------------------------------------------------|
B|-----------------------------------------------------------------------|
G|---0--0--0--0---0--0--0--0---0-0--0--0---0--0--0--0--0--0--0--0--------|
D|---0--0--0--0---0--0--0--0---0-0--0--0---0--0--0--0--0--0--0--0--------|  
A|---10-10-10-10--10-10-10-10--7-7--10-10--10-10-10-10-10-10-10-10-------|
E|---8-8-8--8---7-7-7--7---5-5--7--7---8--8--8--8--8--8--8--8--------|

Verse
E|--------------------------------------------------------------------|
B|--------------------------------------------------------------------|
G|---0--0--0--0---0--0---0--0---0--0---0--0--0---0--0---0--0---0--0---|
D|---0--0--0--0---0--0---0--0---0--0---0--0--0---0--0---0--0---0--0---| x2 
A|---10-10-10-10--14-14--12-12--10-10--10-10-10--14-14--12-12--10-10--|
E|---8--8--8--8---12-12--10-10--8--8---8--8--8---12-12--10-10--8-8---|

Chorus

E|-----------------------------------------------------------------------|
B|-----------------------------------------------------------------------|
G|---0-0-0-0--0-0-0-0--0--0---0--0---0--0---0--0---0--0--0--0------------|
D|---0-0-0-0--0-0-0-0--0--0---0--0---0--0---0--0---0--0--0--0------------|  
A|---5-5-5-5--5-5-5-5--10-10--12-12--14-14--12-12--10-10-10-10-----------|
E|---3-3-3-3--2-2-2-2--0--0---0--0---0--0---0--0---8--8--8--8------------|

E|------------------------------------------|
B|------------------------------------------|
G|---0--0--0--0---0-0--0--0---0--0---0--0---|
D|---0--0--0--0---0-0--0--0---0--0---0--0---|  x2
A|---10-10-10-10--7-7--10-10--10-10--12-12--|
E|---7--7--7--7---5-5--7--7---8--8---10-10--|




INTRO

VERSE

CHORUS



Solo (Over Chorus Rhythm)

E|-----------------------------------------------------------------------|
B|-----------------------------------------------------------------------|
G|------5-4-5-7--5-4-454----454----4-5-7---5-454-------------------------|
D|---5------------------5------5----------------5-----7--9--5--4---------|  
A|-----------------------------------------------------------------------|
E|-----------------------------------------------------------------------|

E|-----------------------------------------------------------------------|
B|---------------5-7-8--7--10--8--7-787---10-8-7-787---------------------|
G|------5-4-5-7------------------------7------------7--------------------|
D|---5-------------------------------------------------------------------|  
A|-----------------------------------------------------------------------|
E|-----------------------------------------------------------------------|



Ending 

E|--------------------------3--------------------------------------------|
B|------3----3-----3----3---3--------------------------------------------|
G|-----0----0----0-----2----0--------------------------------------------|
D|-------------------0------0--------------------------------------------|  
A|---0----2----3------------x--------------------------------------------|
E|--------------------------3--------------------------------------------|
Tap to rate this tab
 
# A B C D E F G H I J K L M N O P Q R S T U V W X Y Z