Guitaretab - guitar tabs
Song name
# A B C D E F G H I J K L M N O P Q R S T U V W X Y Z

Dropped At Birth - Parental Guidance tab

parental guidance.

verse:

------------------------------------------------------------------|
------------------------------------------------------------------|
------------------------------------------------------------------|
-----5-5-5-5-5---7-7-7-7-7----------------------------------------|
-----3-3-3-3-3---5-5-5-5-5----7-7----5-5----3---------------------|
------------------------------5-5----3-3----1---------------------|

chorus:
[ Tab from: http://www.guitaretab.com/d/dropped-at-birth/38324.html ]
------------------------------------------------------------------|
------------------------------------------------------------------|
------------------------------------------------------------------|
---------------9---8---7---7---9----------------------------------|
-----7---7-----7---6---5---5---7----------------------------------|
-----5---5--------------------------------------------------------|

solo:

------------------------------------------------------------------|
------------------------8b--8b------------------------------------|
----------5h-7----------------------------------------------------|
--5h7-------------------------------------------------------------|
------------------------------------------------------------------|
------------------------------------------------------------------|

~jonathan

Advertisement will be closed in 10 seconds