Dropping A Popped Locket - Someone On My Mind With Zombie Dance Off tab

Artist: DAPL
Song: Someone On My Mind with Zombie Dance Off

All lead guitar has a delay effect. All guitars in distortion. 

Intro
G.1
D--------------------------------|  \
A-3-3-3-3-3-7-5-3-3-3-3-3-3-5-7-5|   \ 
F--------------------------------|    \
C--------------------------------|     x4
G--------------------------------|    /
C--------------------------------|   /

G.2
D---------------------------------------------| \
A---------------------------------------------|  \
F-4-4-4-4---------7-7-7-7-2-2-2-2-------------|   \
C-4-4-4-4-5-5-5-5-7-7-7-7-2-2-2-2-------------|   x3   
G-2-2-2-2-5-5-5-5-5-5-5-5-0-0-0-0-------------|   /
C---------5-5-5-5-0-0-0-0---------------------|  /

Chorus
G.1
D--------------------------------|  \
A-3-3-3-3-3-7-5-3-3-3-3-3-3-5-7-5|   \ 
F--------------------------------|    \
C--------------------------------|     x4
G--------------------------------|    /
C--------------------------------|   /

G.2 with wah 2nd time
D---------------------------------------------| \
A---------------------------------------------|  \
F-4-4-4-4---------7-7-7-7-2-2-2-2-------------|   \
C-4-4-4-4-5-5-5-5-7-7-7-7-2-2-2-2-------------|   x3   
G-2-2-2-2-5-5-5-5-5-5-5-5-0-0-0-0-------------|   /
C---------5-5-5-5-0-0-0-0---------------------|  /

Verse 1
G.2W/wah pedal every note
D-------------------------------------------------|
A-------------------------------------------------|
F-------------------------------------------------|
C-------------------------------------------------|
G-2-2-2-2---------5-5-5-5-0-0-0-0-----------------|  x 3
C---------5-5-5-5---------------------------------|

Verse 2
G.1
D--------------------------------|  \
A-3-3-3-3-3-7-5-3-3-3-3-3-3-5-7-5|   \ 
F--------------------------------|    \
C--------------------------------|     x4
G--------------------------------|    /
C--------------------------------|  

G.2 W/wah and flanger or phaser
D-------------------------------------------------|
A-------------------------------------------------|
F-------------------------------------------------|
C-------------------------------------------------|  x3
G-2-2-2-2---------5-5-5-5-0-0-0-0-----------------|
C---------5-5-5-5---------------------------------|

Chorus
G.1
D--------------------------------|  \
A-3-3-3-3-3-7-5-3-3-3-3-3-3-5-7-5|   \ 
F--------------------------------|    \
C--------------------------------|     x4
G--------------------------------|    /
C--------------------------------|   /

G.2 with wah 2nd time
D---------------------------------------------| \
A---------------------------------------------|  \
F-4-4-4-4---------7-7-7-7-2-2-2-2-------------|   \
C-4-4-4-4-5-5-5-5-7-7-7-7-2-2-2-2-------------|   x3   
G-2-2-2-2-5-5-5-5-5-5-5-5-0-0-0-0-------------|   /
C---------5-5-5-5-0-0-0-0---------------------|  /

Verse 3(listen for timeing, slightly different)
G.1
D--------------------------------|  \
A-3-3-3-3-3-7-5-3-3-3-3-3-3-5-7-5|   \ 
F--------------------------------|    \
C--------------------------------|     x4
G--------------------------------|    /
C--------------------------------|  

G.2 W/wah and flanger or phaser
D-------------------------------------------------|
A-------------------------------------------------|
F-------------------------------------------------|
C-------------------------------------------------|  x3
G-2-2-2-2---------5-5-5-5-0-0-0-0-----------------|
C---------5-5-5-5---------------------------------|

Chorus
G.1
D--------------------------------|  \
A-3-3-3-3-3-7-5-3-3-3-3-3-3-5-7-5|   \ 
F--------------------------------|    \
C--------------------------------|     x4
G--------------------------------|    /
C--------------------------------|   /

G.2 with wah 2nd time
D---------------------------------------------| \
A---------------------------------------------|  \
F-4-4-4-4---------7-7-7-7-2-2-2-2-------------|   \
C-4-4-4-4-5-5-5-5-7-7-7-7-2-2-2-2-------------|   x3   
G-2-2-2-2-5-5-5-5-5-5-5-5-0-0-0-0-------------|   /
C---------5-5-5-5-0-0-0-0---------------------|  /

Breakdown(listen for timeing, slightly different)
G.1
D--------------------------------|  \
A-3-3-3-3-3-7-5-3-3-3-3-3-3-5-7-5|   \ 
F--------------------------------|    \
C--------------------------------|     x4
G--------------------------------|    /
C--------------------------------|  

G.2 W/wah and flanger or phaser
D-------------------------------------------------|
A-------------------------------------------------|
F-------------------------------------------------|
C-------------------------------------------------|  x3
G-2-2-2-2---------5-5-5-5-0-0-0-0-----------------|
C---------5-5-5-5---------------------------------|

Chorus
G.1
D--------------------------------|  \
A-3-3-3-3-3-7-5-3-3-3-3-3-3-5-7-5|   \ 
F--------------------------------|    \
C--------------------------------|     x4
G--------------------------------|    /
C--------------------------------|   /

G.2 with wah 2nd time
D---------------------------------------------| \
A---------------------------------------------|  \
F-4-4-4-4---------7-7-7-7-2-2-2-2-------------|   \
C-4-4-4-4-5-5-5-5-7-7-7-7-2-2-2-2-------------|   x3   
G-2-2-2-2-5-5-5-5-5-5-5-5-0-0-0-0-------------|   /
C---------5-5-5-5-0-0-0-0---------------------|  /

THE END!?!?!?!?!
Tap to rate this tab
 
# A B C D E F G H I J K L M N O P Q R S T U V W X Y Z