Guitaretab - guitar tabs
Song name
# A B C D E F G H I J K L M N O P Q R S T U V W X Y Z

Dropping Daylight - Blame Me tab

-------------------------------------------------------------------------------
			     Blame Me by Dropping Daylight
-------------------------------------------------------------------------------
Tabbed by: Hacksaw34

Blame Me from the Album "Brace Yourself".  
This tab does not show the timing, you'll have to figure that out yourself.

Tuning: Drop C# (1/2 step down, drop D)


Intro (after some piano)

eb|--------|-------------------------|
Bb|--------|-------------------------|
Gb|--------|--------/7-8--8--10-10---|x3
Db|--1111--|--------/7-8--8--10-10---|
Ab|--1111--|--------/7-8--8--10-10---|
Db|--1111--|-------------------------|


Verse (palm mute)
eb|----------------------------------------------------------------|
Bb|----------------------------------------------------------------|
Gb|----------------------------------------------------------------|x3
Db|----------------------------------------------------------------|
Ab|----------------------------------------------------------------|
Db|-0-0-0-3-3-3-2-2-2-5-5-5-3-3-7-7-5-5-5-8-8-8-7-7-7-3-3-5-5-2-2--|

eb|---------------------------------|
Bb|---------------------------------|
Gb|---------------------------------|
Db|---------------------------------|
Ab|---------------------------------|
Db|-0-0-0-3-3-3-2-2-2-5-5-5-3-3-7\--|


Chorus
eb|-------|
Bb|-------|
Gb|-------|
Db|-1111--|
Ab|-1111--|
Db|-1111--|
                                       -------
eb|-----------0---------------|               \
Bb|-----------1---------------|
Gb|-----------2---------------|x3              \
Db|--0h10h12--0---x3-3---x5-5-|
Ab|--0h10h12--0---x3-3---x5-5-|                 \
Db|--0h10h12--0---x3-3---x5-5-|
                                                 x2 
eb|-----------------------|                     /
Bb|-----------------------|                    
Gb|-3--3--3-----5--5--5---|                    /
Db|-3--3--3-----5--5--5---|
Ab|-1--1--1-----3--3--3---|                   /
Db|-----------------------|            -------
[ Tab from: http://www.guitaretab.com/d/dropping-daylight/182250.html ]
Pre-Verse 2
eb|----------------------------|
Bb|----------------------------|
Gb|----------------------------|
Db|----------------------------|
Ab|----------------------------|
Db|-000--333--222--555--3\ /---|

Verse (palm mute first 2 times)
eb|----------------------------------------------------------------|
Bb|----------------------------------------------------------------|
Gb|----------------------------------------------------------------|x3
Db|----------------------------------------------------------------|
Ab|----------------------------------------------------------------|
Db|-0-0-0-3-3-3-2-2-2-5-5-5-3-3-7-7-5-5-5-8-8-8-7-7-7-3-3-5-5-2-2--|

eb|---------------------------------|
Bb|---------------------------------|
Gb|---------------------------------|
Db|---------------------------------|
Ab|---------------------------------|
Db|-0-0-0-3-3-3-2-2-2-5-5-5-3-3-7---|

repeat chorus

Bridge
eb|-----------------------------------------------------|
Bb|-----------------------------------------------------|
Gb|-----------------------------------------------------|
Db|--0-------------------8---------7---------8----------|
Ab|--0-------------------8--(x16)--7--(x16)--8--(x16)---|
Db|--0-------------------8---------7---------8----------|

eb|------------------------------|
Bb|------------------------------|
Gb|--7-----9-----10-----12--14---|
Db|------------------------------|
Ab|--5-----7-----8------10--12---|
Db|-----0-----0------0-----------|

eb|--------------------------------------------------------|
Bb|--------------------------------------------------13b15-|
Gb|--------------------------------------------------------|
Db|-----8---------7---------8-------------------0----------|
Ab|-----8--(x16)--7--(x16)--8--(x16)------------0----------|
Db|-----8---------7---------8-------------------0----------|

repeat chorus x2

Ending
eb|-----------|
Bb|-----------|
Gb|-----------|
Db|-1111--0---|
Ab|-1111--0---|
Db|-1111--0---|


| /  slide up
| \  slide down
| h  hammer-on
| p  pull-off
| ~  vibrato
| +  harmonic
| x  Mute note
===============================================================================
Related for Blame Me tab
Advertisement will be closed in 10 seconds