Song name
# A B C D E F G H I J K L M N O P Q R S T U V W X Y Z

Dropping Daylight - Solilquy tab

This is SOLILQUY.. i saw these guys local in concert, at Wachovia Arena, in 
I saw Seth playing this song and there was an extra guitar playing too but i might show it her well 
haoe you like it this song RoCkS!!!!! Enjoi...


GUITAR 1 - Seth Davin
GUITAR 2 - Extra Sample


(INTRO)
Guitar 1
|-------------------------------999/10101010---|
|-------------------------------888/10101010---|
|-------------------------------888--8-8-8-8---|
|----------------------------------------------|
|---4444---------------4444--------------------|
|---2222---------------2222--------------------|
PM  ....               ....


Guitar 2 (feedback)
|----------------------------------------------|
|--/12~~~~~~~~~~~~~~~~~~~~~~~~~~~~~~~~~~~~~~~~~|
|----------------------------------------------|
|----------------------------------------------|
|----------------------------------------------|
|----------------------------------------------|

Guitar 1
|---------------------------------------------|
|---------------------------------------------|
|---------------------------------------------|
|-------------------------------------1----1--|
|--99999999111111111111111199999999-001--001--|
|--99999999101010101010101099999999-001--001--|
PM                                  ..   ..


Guitar 2
|--9999999/101010101010101099999999-----------|
|--8888888/101010101010101088888888-----------|
|--8888888/-8-8-8-8-8-8-8-888888888-----------|
|---------------------------------------------|
|-------------------------------------2----2--|
|------------------------------------1----1---|


Guitar 1
|----------------------------------------------------|
|----------------------------------------------------|
|----------------------------------------------------|
|----------------------------------------------------|
|--999999991111111111111111999999991111111111111111--|
|--999999991010101010101010999999991010101010101010--|

Guitar 2
|--9999999/1010101010101010999999991010101010101010--|
|--8888888/1010101010101010888888881010101010101010--|
|--8888888/-8-8-8-8-8-8-8-888888888-8-8-8-8-8-8-8-8--|
|----------------------------------------------------|
|----------------------------------------------------|
|----------------------------------------------------|




(VERSE 1)
Guitar 1
|--------------------------------------------------------------------|
|--------------------------------------------------------------------|
|--------------------------------------------------------------------|
|--------------------------------------------------------------------|
|--3333333300000000333333330000111133333333000000003333333366660000--|
|--3333333300000000333333330000111133333333000000003333333366660000--| x2
PM ................................................................

|-----|
|-----|
|-----|
|-----|
|1~~~~|
|0~~~~|



(PRE-CHORUS)
Guitar 1
|-----------|-----|----------------------------------------------|
|-----------|-----|----------------------------------------------|
|-----------|-----|----------------------------------------------|
|--7-7-7-7--|--7--|-------------continue-through-----------------|
|--9-9-9-9--|--9--|----------------------------------------------|
|-----------|-----|----------------------------------------------| x2
| (ALONE)   | x32 |

Guitar
|-----------|--9999999/1010101010101010999999991010101010101010--|
|-----------|--8888888/1010101010101010888888881010101010101010--|
|-----------|--8888888/-8-8-8-8-8-8-8-888888888-8-8-8-8-8-8-8-8--|
|-----------|----------------------------------------------------|
|-----------|----------------------------------------------------|
|-----------|----------------------------------------------------| x2



(CHORUS)
Guitar 1 and Guitar 2
|------------------------------------------------------|
|------------------------------------------------------|
|------------------------------------------------------|
|--------------------------------------4---------4-----|
|--7-7-7-7-9-9-9-9-5-5-5-5-7-7-4-4-----5---------5-----|
|--7-7-7-7-9-9-9-9-5-5-5-5-7-7-4-4-55-5-5--5-5555-5-5--|



(VERSE 2)
Guitar 1
|--------------------------------------------------------------------|
|--------------------------------------------------------------------|
|--------------------------------------------------------------------|
|--------------------------------------------------------------------|
|--333333330000000033333333001-002-33333333000000003333333366660000--|
|--333333330000000033333333001-002-33333333000000003333333366660000--|
PM ..........................  ..  ................................


|--------------------------------------------------------------------|
|--------------------------------------------------------------------|
|--------------------------------------------------------------------|
|--------------------------------------------------------------------|
|--3333333300000000333333330000111133333333000000003333333366660000--|
|--3333333300000000333333330000111133333333000000003333333366660000--|
PM ................................................................

|-----|
|-----|
|-----|
|-----|
|1~~~~|
|0~~~~|

THATS ALL YA NEED TO KNOW FOR THE SONG


THE BRIDGE GOES LIKE THIS.............

GUITAR 1
|--------------------------------|--8----8-6--|
|--------------------------------|---7h8------|
|--------------------------------|------------|
|--4444--------------------------|------------|
|--4444-------5/------------5/---|------------|
|-------------5/0-0000-0000-5/0--|------------| x4
|                                             |
|                                             |
GUITAR 2                                      |
|---------------------------------------------|
|---------------------------------------------|
|--------3333---------------------------------|
|--------3333-----3333-3333-------------------|
|---------------------------5/----------------|
|---------------------------5/0---------------| x4


BOTH GUITARS
|-----------------------------------|
|-----------------------------------|
|-----------------------------------|
|-----------------------------------|
|--3.------7.------9.------12.------|
|--3.------7.------9.------12.------|


|--------------------------------------------|
|--------------------------------------------|
|--------------------------------------------|
|--------------------------------------------|
|--3-------7-------9-------12----------------|
|--3333333377777777999999991212121212121212--| x2
PM  ....... ....... .......   . . . . . . .

THE REST OF THE SONG WORKS OFF THOSE CATEGORIES PLEASE RATE THIS CUZ I NEED POINTS! 
guys.................
Tap to rate this tab
# A B C D E F G H I J K L M N O P Q R S T U V W X Y Z