Drowners - Unzip Your Harrington tab

-------------------------------------------------------------------------------
                             UNZIP YOUR HARRINGTON - Drowners
-------------------------------------------------------------------------------
Tabbed by:OBLIVIOUSSPY
E-mail:alexktorrance@gmail.com

Tuning:eADGBE

                                 INTRO
e|---------------------------------------------------------------------------|
B|----7--7--------7--7--------7--7--------5--5--5--5-7(5)--------------------|
G|----7--7--------7--7--------7--7--------6--6--6--6-6(6)--------------------|
D|----7--7--------7--7--------7--7--------7--7--7--7-7(7)--------------------|  X2
A|---------------------------------------------------------------------------|
E|---------------------------------------------------------------------------|

                                 VERSE
Dmaj7         Em7     
Trouble for a friend of mine.
Dmaj7                       Em7
It’s not fair they make you go to school.
Dmaj7            Em7
Let’s rip up the list tonight
Bm                       A                   (Asus4)
Of all the things you’re scared to tell your father.

                                 CHORUS
e|---------------------------------------------------------------------------|
B|----7--7--------7--7--------7--7--------5--5--5--5-7(5)--------------------|
G|----7--7--------7--7--------7--7--------6--6--6--6-6(6)--------------------|
D|----7--7--------7--7--------7--7--------7--7--7--7-7(7)--------------------|
A|---------------------------------------------------------------------------|
E|---------------------------------------------------------------------------|

  I’m gonna hang around long enough to be part of the furniture.
e|---------------------------------------------------------------------------|
B|----7--7--------7--7--------7--7--------5--5--5--5-7(5)--------------------|
G|----7--7--------7--7--------7--7--------6--6--6--6-6(6)--------------------|
D|----7--7--------7--7--------7--7--------7--7--7--7-7(7)--------------------|
A|---------------------------------------------------------------------------|
E|---------------------------------------------------------------------------|

Oh boy, you look so suave when you unzip your harrington.

Em7                         Dmaj7 
I guess what you’re like at home.

e|---------------------------------------------------------------------------|
B|----7--7--------7--7--------7--7--------5--5--5--5-7(5)--------------------|
G|----7--7--------7--7--------7--7--------6--6--6--6-6(6)--------------------|
D|----7--7--------7--7--------7--7--------7--7--7--7-7(7)--------------------|  X2
A|---------------------------------------------------------------------------|
E|---------------------------------------------------------------------------|


                                 
                                 VERSE 2

Dmaj7                     Em7                                 
Spend the cheque that you picked up today.
Dmaj7           Em7
Neon-lit when i saw your face.
Dmaj7                     Em7
The post came, i thought ‘a letter. great’
Bm                     A           (Asus4)
It’s all about how you never go on holiday

                                 CHORUS 2
e|---------------------------------------------------------------------------|
B|----7--7--------7--7--------7--7--------5--5--5--5-7(5)--------------------|
G|----7--7--------7--7--------7--7--------6--6--6--6-6(6)--------------------|
D|----7--7--------7--7--------7--7--------7--7--7--7-7(7)--------------------|
A|---------------------------------------------------------------------------|
E|---------------------------------------------------------------------------|

  I’m gonna hang around long enough to be part of the furniture.
e|---------------------------------------------------------------------------|
B|----7--7--------7--7--------7--7--------5--5--5--5-7(5)--------------------|
G|----7--7--------7--7--------7--7--------6--6--6--6-6(6)--------------------|
D|----7--7--------7--7--------7--7--------7--7--7--7-7(7)--------------------|
A|---------------------------------------------------------------------------|
E|---------------------------------------------------------------------------|

Oh boy, you look so suave when you unzip your harrington.

Em7                         Dmaj7
I guess what you’re like at home.

                                 CHORUS 3
e|---------------------------------------------------------------------------|
B|----7--7--------7--7--------7--7--------5--5--5--5-7(5)--------------------|
G|----7--7--------7--7--------7--7--------6--6--6--6-6(6)--------------------|
D|----7--7--------7--7--------7--7--------7--7--7--7-7(7)--------------------|
A|---------------------------------------------------------------------------|
E|---------------------------------------------------------------------------|

  I’m gonna hang around long enough to be part of the furniture.
e|---------------------------------------------------------------------------|
B|----7--7--------7--7--------7--7--------5--5--5--5-7(5)--------------------|
G|----7--7--------7--7--------7--7--------6--6--6--6-6(6)--------------------|
D|----7--7--------7--7--------7--7--------7--7--7--7-7(7)--------------------|
A|---------------------------------------------------------------------------|
E|---------------------------------------------------------------------------|

Oh boy, you look so suave when you unzip your harrington.

Em7                         Dmaj7
I guess what you’re like at home.

|----------------------------------------------------------------------------|

Another good way to play the INTRO/CHORUS is to incorporate the bass.

e|---------------------------------------------------------------------------|
B|----7--7--7-----7--7--7-----7--7--7-----5--5--5--5-7(5)--------------------|
G|----7--7--7-----7--7--7-----7--7--7-----6--6--6--6-6(6)--------------------|
D|----7--7--7-----7--7--7------55-55-5----7--7--7--7-7(7)--------------------|
A|-----55-55-5---------------------------------------------------------------|
E|-----------------77-77-7---------------------------------------------------|


|----------------------------------------------------------------------------|


That's the main part of the song although there are some layered melodies beyond this. 
If you can work them out please feel free to share it (along with any corrections, hopefully there's none), 
I'm pretty sure that it is playing around certain chords.


Tap to rate this tab
 
# A B C D E F G H I J K L M N O P Q R S T U V W X Y Z