Song name
# A B C D E F G H I J K L M N O P Q R S T U V W X Y Z

Drowning Fish - Prom Night tab

Help us improve GuitareTab! Take a short survey!
-------------------------------------------------------------------------------
	              Prom Nite - Drowning Fish
-------------------------------------------------------------------------------
Tabbed by: Aron S*
Email: goodsum@hotmail.com

Tuning: standard


Intro/Bridge:

e|------------------------------------|
B|------------------------------------|
G|------------------------------------|
D|--7-7-7-7-7-7-7-7--7-7-7-7-7-7-7-7--| x2
A|--7-7-7-7-7-7-7-7--7-7-7-7-7-7-7-7--|
E|--5-5-5-5-5-5-5-5--5-5-5-5-5-5-5-5--|


Verse:

e|---------------------------------|
B|---------------------------------|
G|--------------------------7------|
D|--7-------2-------4-------7-x16--| x2
A|--7-x16---2-x16---4-x16---5------|
E|--5-------0-------2--------------|


Chorus:

e|-----------------------|
B|-----------------------|
G|----------------7------|
D|--4------2------7-x16--| x4
A|--4-x8---2-x8---5------|
E|--2------0-------------|


Solo:

e|-----------------------------------|-------------------------------|
B|-----------------------------------|-------------------------------|
G|-----------------------------------|-------------------------------|
D|-----------------------------------|-------------------------------|
A|--5-5-4-4-2-2-4-4-5-5-4-4-2-2-4-4--|--7-7-5-5-4-4-5-5-7-7-6--0--2--|
E|-----------------------------------|-------------------------------|

e|-----------------------------------|-------------------------------|
B|-----------------------------------|-------------------------------|
G|-----------------------------------|-------------------------------|
D|-----------------------------------|-------------------------------|
A|--5-5-4-4-2-2-4-4-5-5-4-4-2-2-4-4--|--7-7-5-5-4-4-5-5--0--2--4--2--|
E|-----------------------------------|-------------------------------|


This bit is played by another guitar on the 2nd half of the solo
e|-----------------------------------|--------------------------------|
B|-----------------------------------|--------------------------------|
G|--77775555444455557777555544445555-|--9999888866668888222244442222--|
D|-----------------------------------|--------------------------------|
A|-----------------------------------|--------------------------------|
E|-----------------------------------|--------------------------------|


Outro:

e|----------------------------------------|
B|----------------------------------------|
G|--7-7-7-7-7-7-7-7--9-9-9-9--7-7-7-7-----|
D|--7-7-7-7-7-7-7-7--9-9-9-9--7-7-7-7--7--|
A|--5-5-5-5-5-5-5-5--7-7-7-7--5-5-5-5--7--|
E|-------------------------------------5--|



It Goes:

Intro/Bridge
Verse
Chorus
Intro/Bridge
Verse
Chorus
Solo & Verse
Chorus
Outro


| /  slide up
| \  slide down
| h  hammer-on
| p  pull-off
| ~  vibrato
| +  harmonic
| x  Mute note
===============================================================================
Related for Prom Night tab