Song name
# A B C D E F G H I J K L M N O P Q R S T U V W X Y Z

Drowning Fish - Summer Of 89 tab

Summer Of '89

Intro:
|------------------------------------------------------------------------|
|------------------------------------------------------------------------|
|----4---4---4---4-----4---4---4---4----------------------------5---5----|
|--5---5---5---5-----2---2---2---2-----5---5---5---5-----4---4-----------|
|------------------------------------3---3---3---3-----5---5------5---5--|
|------------------------------------------------------------------------| x2


Intro 2 (Palm Mute/String)-----> como si fuera basket case :P

|--------------------------|
|--------------------------|
|--12----------5-----7-----|
|--12----2-----5-----7-----|
|--10----2-----3-----5-----|
|---x----0-----x-----x-----|


Intro Parte 3:
|-------------------------------------------------|
|-------------------------------------------------|
|-------------------------------------------------|
|--5-7-9-5-0---9-7-5-5------9-7-5-5------5-4-5-7~-|
|----------------------7------------5-------------|
|-------------------------------------------------|

|----------------------------------------------------|
|----------------------------------------------------|
|----------------------------------------------------|
|--4-5-7-9-5-0---9-7-5-5-4-----5-4----------9-7-5-7--|
|--------------------------------5-7-5---------------|
|----------------------------------------------------|

Verso:
|-----------------------------|
|-----------------------------|
|-----------5---7-------5--11-|
|--5----2---5---7-------x---x-|
|--5----2---3---5-------3--10-|
|--3----0---x---x-------x---x-|

Coro:(x16 cada acorde)
|--------------------|
|--------------------|
|-----------5---7----|
|--5----2---5---7----|
|--5----2---3---5----|
|--3----0---x---x----|


Intro 2 (palm mute/string)

|--------------------------|
|--------------------------|
|--12----------5-----7-----|
|--12----2-----5-----7-----|
|--10----2-----3-----5-----|
|---x----0-----x-----x-----|

Verso:
|----------------------------|
|----------------------------|
|-----------5---7-----5--11--|
|--5----2---5---7-----x---x--|
|--5----2---3---5-----3--10--|
|--3----0---x---x-----x---x--|

|--------------------|
|--------------------|
|-----------5---7----|
|--5----2---5---7----|
|--5----2---3---5----|
|--3----0---x---x----|

Coro Guitarra 1(creo):
|--------------------|
|--------------------|
|-----------5---7----|
|--5----2---5---7----|
|--5----2---3---5----|
|--3----0---x---x----|

Coro Guitarra 2(si hay uno 1 hay 2) / Solo

|---------------------------------------------------------------------------------------------------------------|
|---------------------------------------------------------------------------------------------------------------|
|-------------------------------------------------------------------------0-7-5-4------0-7-5-4------0-7-5-4-----|
|--5-4---5-4---5-4---5-4-5-7-5-4-5---0-7-5-4-2-5-4------0-7-5-4---5-7-5-----------5------------5------------7---|
|------5----5-----5--------------------------------5------------------------------------------------------------|
|---------------------------------------------------------------------------------------------------------------|
[       Chorus 3:26       ][        Solo               ]


Interlude (string):
|--------------------------|
|--------------------------|
|--12----------5-----7-----|
|---x----2-----x-----x-----|
|--10----2-----3-----5-----|
|---0----0-----0-----0-----|

Interlude 2:
|----------------------------------------------------------------------------|
|----------------------------------------------------------------------------|
|-----------------------------------0-7-5-4---0-7-5-4---0-7-5-4--------------|
|--5---5/7-5--5/7-5--5/7-5--4--5-----------5----------5---------7------------|
|----------------------------------------------------------------------------|
|----------------------------------------------------------------------------|

Coro Guitarra 1:
|--------------------|
|--------------------|
|-----------5---7----|
|--5----2---5---7----|
|--5----2---3---5----|
|--3----0---x---x----|

Final Guitarra 2 (5:16) pd: la otra guitarra sigue con el coro o x lo menos asi parece

|-------------------------------------------------------------------------------------------------------------------|
|-------------------------------------------------------------------------------------------------------------------|
|--12-11-----12-11-------12-11-12-14-12-11--12-11-----12-11-----12-11-12-14-12-11---11-11-12-12-12--11-11-12-12-12--|
|--------12--------12-----------------------------12--------12------------------------------------------------------|
|-------------------------------------------------------------------------------------------------------------------|
|-------------------------------------------------------------------------------------------------------------------|

|-----------------------------------------------------------------------------------------------|
|-----------------------------------------------------------------------------------------------|
|--11-11-12-12-12--11-11-12-12-12--11-11-12-12-12--11-11-12-12-12--11-11-12-12-12-14-12-11-12---|
|-----------------------------------------------------------------------------------------------|
|-----------------------------------------------------------------------------------------------|
|-----------------------------------------------------------------------------------------------|

Guitarra 1
|-------|
|-------|
|-------|
|--5----|
|--5----|
|--3----|


para ti frido :D!!
Tap to rate this tab
# A B C D E F G H I J K L M N O P Q R S T U V W X Y Z