Song name
# A B C D E F G H I J K L M N O P Q R S T U V W X Y Z

Drowning Pool - Turn So Cold tab

-----------------------------------------------------------------------------
			     Turn so cold - Drowning Pool
-----------------------------------------------------------------------------
Tabbed by: Sirlinkith
Email: Sirlinkith@gmail.com

Tuning: Standard E

Lots of delay and reverb.


e|--------------------------------------------------------------------------|
B|--------------------------------------------------------------------------|
G|-------------8-8------------------------------9--9--11--11----11---8h9-8--|
D|-------------------9-9---9h11--11---------------------------------------h9|
A|---------------------------------------0-0--------------------------------|
E|-------9-9----------------------------------------------------------------|


e|--------------------------------------------------------------------------|
B|--------------------------------------------------------------------------|
G|-------------8-8------------------------------9--9--11--11----11---8b9~---|
D|-------------------9-9---9h11--11-----------------------------------------|
A|---------------------------------------0-0--------------------------------|
E|-------9-9----------------------------------------------------------------|



 It's not perfect but it's close,and with enough delay and reverb you won't have to 
double the notes. questions or comments email me at sirlinkith@gmail.com thanks.
Tap to rate this tab
 
# A B C D E F G H I J K L M N O P Q R S T U V W X Y Z