Song name
# A B C D E F G H I J K L M N O P Q R S T U V W X Y Z

Drowning Pool - Killin Me tab

|-7-----7-----7-----7-----9-----9-----9-----9-----8-----8-----8-----8----|
|--5-5---5-5---5-5---5-5---7-7---7-7---7-7---7-7---6-6---6-6---6-6---6-6-|
|------------------------------------------------------------------------|
|------------------------------------------------------------------------|
|------------------------------------------------------------------------|
|------------------------------------------------------------------------|


|-11-----11-----12-12-12-12-12-12----------------------------------------|
|---9-9----9-9-----------------------------------------------------------|
|------------------------------------------------------------------------|
|------------------------------------------------------------------------|
|------------------------------------------------------------------------|
|------------------------------------------------------------------------|
Tap to rate this tab
# A B C D E F G H I J K L M N O P Q R S T U V W X Y Z