Song name
# A B C D E F G H I J K L M N O P Q R S T U V W X Y Z

Drowning Shakespeare - Falsetto Not Omnisteto tab

----------------------------------------------------------------------------
			     Falsetto, Not Omnisteto - Drowning Shakespeare
----------------------------------------------------------------------------
Tabbed by: Christopher Poirrier
Email: christopherpoirrier@hotmail.com

Tuning: c#g#c#f#a#d#, drop d flat

e|-------------------------------------------------------------------------|
B|-------------------------------------------------------------------------|
G|-2-----5------7-----4-----2-----5-----4----------------------------------|
D|-3-x6--7-x3--10-x2--5-x5--3-x6--7-x7--5-x7-------------------------------|
A|-3-----7-----10-----5-----3-----7-----5----------------------------------|
D|-3-----7-----10-----5-----3-----7-----5----------------------------------|

Listen carefully for strumming.  The quiet part in the middle is the same progression, 
strummed differently.


| /  slide up
| \  slide down
| h  hammer-on
| p  pull-off
| ~  vibrato
| +  harmonic
| x  Mute note
============================================================================
Tap to rate this tab
 
# A B C D E F G H I J K L M N O P Q R S T U V W X Y Z